» » »

Rock N Roll Tabs (ver.3)

Artists:  A B C D E F G H I J K L M N O P Q R S T U V W X Y Z # 

Rock N Roll Tabs (ver.3)

Gary Glitter
Rating:
3/5 (1 vote)

Hard to play? Try these video lessons and learn fast.
                (Part2)
standard tuning

 e|------------------|------------------------|
 B|------------------|------------------------|
 G|------------------|------------------------|
 D|------------------|------------------------|
 A|-2--4-5---5p4-4p2-|-2--4-5---5p4-4h7--7p6--|
 E|------------------|------------------------|

 e|----------------------------|
 B|----------------------------|
 G|--------------9-9-7---------|
 D|-7-7-7-9-9----9-9-7--7-7-9-9|
 A|-7-7-7-9-9----7-7-5--7-7-9-9|
 E|-5-5-5-7-7-----------5-5-7-7|

and so on and so forth but it's really easy.any questions get me at bryanedp9@yahoo.please rate it!!!
            
Hard to play? Try these video lessons and learn fast. | Correct




comments powered by Disqus
↑ Back to top | Tablatures and chords are parodies/interpretations of the original songs. You may use it for private study, scholarship, research or language learning purposes only