» » »

Rock N Roll Christmas Bass tabs (ver.1)

Artists:  A B C D E F G H I J K L M N O P Q R S T U V W X Y Z # 

Rock N Roll Christmas Bass tabs (ver.1)

Gary Glitter
Rating:
0/5 (0 votes)

Hard to play? Try these video lessons and learn fast.
                
                                              -------------------------
                                                   Garry Glitter

                                            Rock & Roll Christmas
                                              -------------------------
Bass Tablature.


What a terrible song!  Anyway, we worked it out with a view to playing it at our
Christmas gig.  There's a bit in the middle we haven't worked out yet but I
thought I'd post it now in the hope that it gets posted on the list before Christmas.



Intro:

|--------------|-----------|
|--------------|-----------|
|--------------|-7-7--7-7--|
|--5-5--5-5--5-|-----------|

Verse:   (play 1 with ending 1 then one with ending 2)

|--------------|--------------|--------------|-----4--2--4--|
|--------2--4--|-----4--2--4--|--------2--4--|--0-----------|
|-----4--------|--------------|-----4--------|--------------|
|--5-----------|--5-----------|--5-----------|--------------|


                               ending 1.......
|-----6--4--6--|-----6--4--6--|--------------|--------------|
|--------------|--------------|--------------|-----4--2--4--|
|--7-----------|--7-----------|--7--5--4--2--|--------------|
|--------------|--------------|--------------|--5-----------|


                               ending 2....
                              |-----6--4--6--|--------------|
                              |--------------|--------4--6--|
                              |--7-----------|--7--7--------|
                              |--------------|--------------|


Chorus:

|----------------|-------------2--|--------------|
|--------2-2--4--|----------4-----|--2-----------|
|-----4----------|--4--4-5--------|-----5--4--2--|
|--5-------------|----------------|--------------|


|--------2----|--------2----|--------2----|--------------|
|-----4-------|-----4-------|-----4-------|--------------|
|--5----------|--5----------|--7----------|--7--5--4--2--|
|-------------|-------------|-------------|--------------|


There - that's about it.  You'll have to listen to it for the structure of the
song - if you can bear it!

Anyway - have fun.

Merry Christmas from everyone in "billy".

Cheers,

Mike.
            
Hard to play? Try these video lessons and learn fast. | Correct




comments powered by Disqus
↑ Back to top | Tablatures and chords are parodies/interpretations of the original songs. You may use it for private study, scholarship, research or language learning purposes only