>
 >
Rock And Roll Part 2 2

Rock And Roll Part 2 2 Guitar Tabs

Gary Glitter - Rock And Roll Part 2 2 chords, tabs, tablatures, lyrics

Guitar lessons | Add/correct | Request | Top 50 tabs Artists:  A B C D E F G H I J K L M N O P Q R S T U V W X Y Z 0-9

Rock And Roll Part 2 2 Guitar Tabs – Gary Glitter

CD, Sheet music, Poster

Do you like Rock And Roll Part 2 2? Share with your friends now
Bass TabsTabsTabs v2Tabs v3

ROCK AND ROLL PART 2
As recorded by Gary Glitter
(Released as a Single in 1972)

        

Music by Paul Gadd, Mike Leander
Arranged by Mike Leander

Gtr I (E A D G B E) - 'Lead Guitar'
Gtr II (E A D G B E) - 'Vocals (Hey)'
Gtr III (E A D G B E) - 'Harmonics'

 Intro
  Q=130(8=s8)
  N.C.
 4/4
  Gtr II
  W          W          Q.    Q   Q.     Q.    Q  Q.
|----------|----------|----------------|----------------|
|----------|----------|------/3\-------|------/3s=5\----|
|----------|----------|----------------|----------------|
|----------|----------|----------------|----------------|
|----------|----------|----------------|----------------|
|----------|----------|----------------|----------------|


  Wx4
|--------|
|--------|
|--------|
|--------|
|--------|
|--------|


  H    Q   Q     H    Q   Q    +E   E Q  Q   Q    Q   H     Q
|--------------|-------------|------------------|---------------|
|---------/3\--|---------/5--|-(5)\---------/3s=|=5\-------/3\--|
|--------------|-------------|------------------|---------------|
|--------------|-------------|------------------|---------------|
|--------------|-------------|------------------|---------------|
|--------------|-------------|------------------|---------------|


   Verse
    Gtrs I, III
      H     +Q.    E     H     +Q.    E    H    +Q.   E   H    Q    Q
||-------------------|------------------|---------------|---------------|
||o------------------|------------------|---------------|---------------|
||-------------------|------------------|---------------|---------------|
||--/12----(12)---12-|-\11----(11)---11-|-\9----(9)-----|------9--/11---|
||o------------------|------------------|---------------|---------------|
||--/10----(10)---10-|--\9-----(9)----9-|-\7----(7)-----|------7---/9---|


    H     +Q.    S  S    H     +Q.   S  S   H    +Q.   E   H    Q    Q
|---------------------|-------------------|--------------|--------------|
|---------------------|-------------------|--------------|--------------|
|---------------------|-------------------|--------------|--------------|
|-/12----(12)---11s12s|=11----(11)---9s11s|=9----(9)-----|------9--/11--|
|---------------------|-------------------|--------------|--------------|
|-/10----(10)----9s10s|==9-----(9)---7s=9s|=7----(7)-----|------7---/9--|


    H     +Q.    E     H     +Q.    E
|------------------|------------------|
|------------------|------------------|
|------------------|------------------|
|-/12----(12)---12-|-\11----(11)---11S|
|------------------|------------------|
|-/10----(10)---10-|--\9-----(9)----9S|


   H     +Q.    E     W          H    Q  E +E
|-----------------|------------|----------------|
|-----------------|------------|----------------|
|-----------------|------------|----------------|
|-14----(14)---14-|-\13--------|---------9-(9)S=|
|-----------------|------------|----------------|
|-12----(12)---12-|-\11--------|---------7-(7)S=|


 Chorus
  $
   E  E  E  E  E E  Q    E  E E E q   E E
|----------------------|------------------|
|----------------------|------------------|
|----------------------|------------------|
|-14-14-14-14-12-------|----7-7-7-9---9-9S|
|----------------------|------------------|
|-12-12-12-12-10-------|----5-5-5-7---7-7S|
|
| Gtr II
|  H           Q    Q    Q    Q   Q   Q
|----------------------|------------------|
|------------------/3s=|=5\---3s==5\------|
|----------------------|------------------|
|----------------------|------------------|
|----------------------|------------------|
|----------------------|------------------|


   E  E  E  E  E E  Q    E  E E E q   E E
|----------------------|-------------------|
|----------------------|-------------------|
|----------------------|-------------------|
|-14-14-14-14-12-------|----7-7-7-9---9-9S=|
|----------------------|-------------------|
|-12-12-12-12-10-------|----5-5-5-7---7-7S=|
|
|  H           Q    Q    Q    Q   Q   Q
|----------------------|-------------------|
|------------------/3s=|=5\---3s==5\-------|
|----------------------|-------------------|
|----------------------|-------------------|
|----------------------|-------------------|
|----------------------|-------------------|


                                   To Coda
   E  E  E  E  E E  Q    E  E E E q   E E
|----------------------|-------------------|
|----------------------|-------------------|
|----------------------|-------------------|
|-14-14-14-14-12-------|----7-7-7-9---9-9--|
|----------------------|-------------------|
|-12-12-12-12-10-------|----5-5-5-7---7-7--|
|
|  H           Q    Q    Q    Q   Q   Q
|----------------------|-------------------|
|------------------/3s=|=5\---3s==5\-------|
|----------------------|-------------------|
|----------------------|-------------------|
|----------------------|-------------------|
|----------------------|-------------------|


  1.
  Gtr II
  H    Q  q    H    Q  q    H    Q  q    H    Q  q
|------------|------------|------------|-------------||
|---------3--|---------3--|---------3--|---------3--o||
|------------|------------|------------|-------------||
|------------|------------|------------|-------------||
|------------|------------|------------|------------o||
|------------|------------|------------|-------------||


  2.
  H    Q  q    W          H    Q  q    W
|------------|----------|------------|------|
|---------3--|----------|---------3--|------|
|------------|----------|------------|------|
|------------|----------|------------|------|
|------------|----------|------------|------|
|------------|----------|------------|------|


 Interlude
  Gtr II
  Q  E E Q  Q     Q   Q   Q  Q     Q   Q   Q  Q     Q   Q   Q  Q
|--------------|----------------|----------------|----------------|
|-3h=5---3-----|-/3--/3--/3-----|-/3--/3--/5-----|-/3--/3--\2-----|
|--------------|----------------|----------------|----------------|
|--------------|----------------|----------------|----------------|
|--------------|----------------|----------------|----------------|
|--------------|----------------|----------------|----------------|


  Q  Q  Q  Q     Q   Q   Q   Q     Q   Q   Q   Q     Q   Q   Q   Q
|-------------|-----------------|-----------------|-----------------|
|-3h=5--3h=5--|-/3--/3--/3--\2--|-/3--/3--/3--/5--|-/3--/3--/3--\2--|
|-------------|-----------------|-----------------|-----------------|
|-------------|-----------------|-----------------|-----------------|
|-------------|-----------------|-----------------|-----------------|
|-------------|-----------------|-----------------|-----------------|


                                                    D.S. al Coda
  Q  Q  Q  Q    Q  Q  Q  Q     Q   Q   Q   Q    Q   Q  +Q   +Q
|-------------|-------------|-----------------|------------------|
|-3h=5--3p=2--|-3h=5--3p=2--|-/3--/3--/3--/3--|-3--/5--(5)--(5)--|
|-------------|-------------|-----------------|------------------|
|-------------|-------------|-----------------|------------------|
|-------------|-------------|-----------------|------------------|
|-------------|-------------|-----------------|------------------|


 Outro
  &
  Gtr II
  W          W          H.       Q    W
|----------|----------|-------------|------|
|----------|----------|---------/3--|------|
|----------|----------|-------------|------|
|----------|----------|-------------|------|
|----------|----------|-------------|------|
|----------|----------|-------------|------|


  Q  Q  Q  Q    Q  Q  E E E E    Q   Q   Q  Q     Q   Q   Q   Q
|-------------|---------------|----------------|-----------------|
|-3h=5--3--3--|-3--3--5---5---|-/3--/3--\2-----|-/3--/3--/3--\2--|
|-------------|---------------|----------------|-----------------|
|-------------|---------------|----------------|-----------------|
|-------------|---------------|----------------|-----------------|
|-------------|---------------|----------------|-----------------|


   Q   Q   Q   Q    Q  E E Q  E E   Q  Q  Q  Q    Q  Q  Q  Q
|-----------------|---------------|-------------|-------------|
|-/3--/3--/3--/5--|-3p=2---3p=2---|-3h=5--3h=5--|-3p=2--3p=2--|
|-----------------|---------------|-------------|-------------|
|-----------------|---------------|-------------|-------------|
|-----------------|---------------|-------------|-------------|
|-----------------|---------------|-------------|-------------|


  E E E E E E E E   E E E E E E E E   E E E E E E E E    Q   Q   Q   Q
|-----------------|-----------------|-----------------|-----------------|
|-3h5p3p2-3h5p3p2-|-3h5p3p2-3h5p3p2-|-3h5p3p2-3h5p3p2-|-/3--/3--/3--/3--|
|-----------------|-----------------|-----------------|-----------------|
|-----------------|-----------------|-----------------|-----------------|
|-----------------|-----------------|-----------------|-----------------|
|-----------------|-----------------|-----------------|-----------------|


  Q  Q  E E E E   Q  Q  Q  Q    H     H       H     H
|---------------|-------------|------------|-------------*|
|-3--3--3h5p3h5-|-3-----3--3--|------/3----|-/3----/3----*|
|---------------|-------------|------------|-------------*|
|---------------|-------------|------------|-------------*|
|---------------|-------------|------------|-------------*|
|---------------|-------------|------------|-------------*|



Duration Legend
---------------
W - whole; H - half; Q - quarter; E - 8th; S - 16th; T - 32nd; X - 64th; a - acciaccatura
+ - note tied to previous; . - note dotted; .. - note double dotted
Uncapitalized letters represent notes that are staccato (1/2 duration)
Irregular groupings are notated above the duration line
Duration letters will always appear directly above the note/fret number it represents the
duration for.  Duration letters with no fret number below them represent rests.  Multi-
bar rests are notated in the form Wxn, where n is the number of bars to rest for.  Low
melody durations appear below the staff

Tablature Legend
----------------
 h   - hammer-on
 p   - pull-off
 b   - bend
 pb  - pre-bend
 r   - bend release (if no number after the r, then release immediately)
 /\  - slide into or out of (from/to "nowhere")
 s   - legato slide
 S   - shift slide
 - natural harmonic
[n]  - artificial harmonic
n(n) - tapped harmonic
 ~   - vibrato
 tr  - trill
 T   - tap
 TP  - trem. picking
 PM  - palm muting
\n/  - tremolo bar dip; n = amount to dip
 \n  - tremolo bar down
 n/  - tremolo bar up
/n\  - tremolo bar inverted dip
 =   - hold bend; also acts as connecting device for hammers/pulls
 <> - volume swell (louder/softer)
 x   - on rhythm slash represents muted slash
 o   - on rhythm slash represents single note slash

Misc Legend
-----------
 |  - bar
||  - double bar
||o - repeat start
o|| - repeat end
*|  - double bar (ending)
 :  - bar (freetime)
 $  - Segno
 &  - Coda
Tempo markers -  = BPM(8/16=s8/s16), where s8 = swing 8ths, s16 = swing 16ths





Comments


Popular Gary Glitter tabs & chords
Leader Of The Gang Chords
Rock And Roll Tabs
Rock And Roll Part 2 Tabs
Rock And Roll Part 2 1 Tabs
Rock N Roll Part 2 Tabs
Rock N Roll Part 2 1 Tabs
Rock N Roll Part 2 2 Tabs
Rock N Roll Part 2 3 Tabs
Rock N Roll Part 2 Intro Tabs
Leader Of The Gang Ukulele


Song lyrics



↑ Back to top | Tablatures and chords are parodies/interpretations of the original songs. You may use it for private study, scholarship, research or language learning purposes only
© 2014 AZChords.com Contact us | Privacy policy | DMCA | Add/correct tabs | Request tabs | Top 50 tabs