>
 >
Rock And Roll Part 2

Rock And Roll Part 2 Bass Tabs

Gary Glitter - Rock And Roll Part 2 chords, tabs, tablatures, lyrics

Guitar lessons | Add/correct | Request | Top 50 tabs Artists:  A B C D E F G H I J K L M N O P Q R S T U V W X Y Z 0-9

Rock And Roll Part 2 Bass Tabs – Gary Glitter

CD, Sheet music, Poster

Do you like Rock And Roll Part 2? Share with your friends now
Bass TabsTabsTabs v2Tabs v3

ROCK AND ROLL PART 2 (Bassline)
As recorded by Gary Glitter
(Released as a Single in 1972)

	

Music by Paul Gadd, Mike Leander
Arranged by Mike Leander

Gtr I (E A D G) - 'Bass'
Gtr II (E A D G) - 'Drums'
Gtr III (E A D G) - 'Handclaps'

 Intro
  Q=130(8=s8)
 4/4
  Gtr I
  W                   W
|-------------------|-------------------|
|-------------------|-------------------|
|-------------------|-------------------|
|-------------------|-------------------|
|
| Gtr II
| E E  E E E E  E E   E E  E E E E  E E
|------0--------0---|------0-0------0---|
|-------------------|-------------------|
|-------------------|-------------------|
|-0-0--0-0-0-0--0-0-|-0-0--0-0-0-0--0-0-|
|
| Gtr III
| Q    e E Q    e E   Q    e E Q    e E
|-----12-------12---|-----12-------12---|
|-------------------|-------------------|
|-------------------|-------------------|
|-------------------|-------------------|


  W                   H        E E  E E
|-------------------|--------------------|
|-------------------|--------------------|
|-------------------|---------------5----|
|-------------------|------------7----7--|
|
| E E  E E E E  E E   E E  E E E E  E E
|------0--------0---|------0-0------0----|
|-------------------|--------------------|
|-------------------|--------------------|
|-0-0--0-0-0-0--0-0-|-0-0--0-0-0-0--0-0--|
|
| Q    e E Q    e E   Q    e E Q    e E
|-----12-------12---|-----12-------12----|
|-------------------|--------------------|
|-------------------|--------------------|
|-------------------|--------------------|


  E E  E E E E  E E   E E  E E E E  E E
|-------------------|-------------------|
|-------------------|-------------------|
|-------------------|---------------5---|
|-7----7---7----7---|-7----7---7-7----7-|
|
| E E  E E E E  E E   E E  E E E E  E E
|------0--------0---|------0-0------0---|
|-------------------|-------------------|
|-------------------|-------------------|
|-0-0--0-0-0-0--0-0-|-0-0--0-0-0-0--0-0-|
|
| Q    e E Q    e E   Q    e E Q    e E
|-----12-------12---|-----12-------12---|
|-------------------|-------------------|
|-------------------|-------------------|
|-------------------|-------------------|


  E E  E E E E  E E   E E  E E E E  E E
|-------------------|-------------------|
|-------------------|-------------------|
|-------------------|---------------5---|
|-7----7---7----7---|-7----7---7-7----7-|
|
| E E  E E E E  E E   E E  E E E E  E E
|------0--------0---|------0-0------0---|
|-------------------|-------------------|
|-------------------|-------------------|
|-0-0--0-0-0-0--0-0-|-0-0--0-0-0-0--0-0-|
|
| Q    e E Q    e E   Q    e E Q    e E
|-----12-------12---|-----12-------12---|
|-------------------|-------------------|
|-------------------|-------------------|
|-------------------|-------------------|


  E E  E E E E  E E   E E  E E E E  E E
|-------------------|-------------------|
|-------------------|-------------------|
|-------------------|---------------5---|
|-7----7---7----7---|-7----7---7-7----7-|
|
| E E  E E E E  E E   E E  E E E E  E E
|------0--------0---|------0-0------0---|
|-------------------|-------------------|
|-------------------|-------------------|
|-0-0--0-0-0-0--0-0-|-0-0--0-0-0-0--0-0-|
|
| Q    e E Q    e E   Q    e E Q    e E
|-----12-------12---|-----12-------12---|
|-------------------|-------------------|
|-------------------|-------------------|
|-------------------|-------------------|


  E E  E E E E  E E   E E  E E E E  E E
|-------------------|-------------------|
|-------------------|-------------------|
|-------------------|---------------5---|
|-7----7---7----7---|-7----7---7-7----7-|
|
| E E  E E E E  E E   E E  E E E E  E E
|------0--------0---|------0-0------0---|
|-------------------|-------------------|
|-------------------|-------------------|
|-0-0--0-0-0-0--0-0-|-0-0--0-0-0-0--0-0-|
|
| Q    e E Q    e E   Q    e E Q    e E
|-----12-------12---|-----12-------12---|
|-------------------|-------------------|
|-------------------|-------------------|
|-------------------|-------------------|


   Verse
    E E  E E E E  E E   E E  E E E E  E E
||--------------------|-------------------|
||o-------------------|-------------------|
||o-------------------|---------------5---|
||--7----7---7----7---|-7----7---7-7----7-|
|
|   E E  E E E E  E E   E E  E E E E  E E
||-------0--------0---|------0-0------0---|
||o-------------------|-------------------|
||o-------------------|-------------------|
||--0-0--0-0-0-0--0-0-|-0-0--0-0-0-0--0-0-|
|
|   Q    e E Q    e E   Q    e E Q    e E
||------12-------12---|-----12-------12---|
||o-------------------|-------------------|
||o-------------------|-------------------|
||--------------------|-------------------|


  E E  E E E E  E E   E E  E E E E  E E
|-------------------|--------------------|
|-------------------|--------------------|
|-------------------|---------------5----|
|-7----7---7----7---|-7----7---7-7----7--|
|
| E E  E E E E  E E   E E  E E E E  E E
|------0--------0---|------0-0------0----|
|-------------------|--------------------|
|-------------------|--------------------|
|-0-0--0-0-0-0--0-0-|-0-0--0-0-0-0--0-0--|
|
| Q    e E Q    e E   Q    e E Q    e E
|-----12-------12---|-----12-------12----|
|-------------------|--------------------|
|-------------------|--------------------|
|-------------------|--------------------|


  E E  E E E E  E E   E E  E E E E  E E
|-------------------|-------------------|
|-------------------|-------------------|
|-------------------|---------------5---|
|-7----7---7----7---|-7----7---7-7----7-|
|
| E E  E E E E  E E   E E  E E E E  E E
|------0--------0---|------0-0---0--0-0-|
|-------------------|-------------------|
|-------------------|-------------------|
|-0-0--0-0-0-0--0-0-|-0-0--0-0-0-0--0-0-|
|
| Q    e E Q    e E   Q    e E Q    e E
|-----12-------12---|-----12-------12---|
|-------------------|-------------------|
|-------------------|-------------------|
|-------------------|-------------------|


  E E  E E E E  E E   E E  E E E E  E E
|-------------------|-------------------|
|-------------------|-------------------|
|-------------------|---------------5---|
|-7----7---7----7---|-7----7---7-7----7-|
|
| E E  E E E E  E E   E E  E E E E  E E
|------0--------0---|------0-0------0---|
|-------------------|-------------------|
|-------------------|-------------------|
|-0-0--0-0-0-0--0-0-|-0-0--0-0-0-0--0-0-|
|
| Q    e E Q    e E   Q    e E Q    e E
|-----12-------12---|-----12-------12---|
|-------------------|-------------------|
|-------------------|-------------------|
|-------------------|-------------------|


  E E  E E E E  E E   E E  E E E E  E E
|-------------------|-------------------|
|-------------------|-------------------|
|-------------------|---------------5---|
|-7----7---7----7---|-7----7---7-7----7-|
|
| E E  E E E E  E E   E E  E E E E  E E
|------0--------0---|------0-0---0--0-0-|
|-------------------|-------------------|
|-------------------|-------------------|
|-0-0--0-0-0-0--0-0-|-0-0--0-0-0-0--0-0-|
|
| Q    e E Q    e E   Q    e E Q    e E
|-----12-------12---|-----12-------12---|
|-------------------|-------------------|
|-------------------|-------------------|
|-------------------|-------------------|


  E E  E E E E  E E   E E  E E E E  E E   E E  E E E E  E E
|-------------------|-------------------|-------------------|
|-------------------|-------------------|-------------------|
|-------------------|---------------5---|-------------------|
|-7----7---7----7---|-7----7---7-7----7-|-7----7---7----7---|
|
| E E  E E E E  E E   E E  E E E E  E E   E E  E E E E  E E
|------0--------0---|------0-0------0---|---0--0-0-0-0--0-0-|
|-------------------|-------------------|-------------------|
|-------------------|-------------------|-------------------|
|-0-0--0-0-0-0--0-0-|-0-0--0-0-0-0--0-0-|-0-0--0-0-0-0--0-0-|
|
| Q    e E Q    e E   Q    e E Q    e E   Q    e E Q    e E
|-----12-------12---|-----12-------12---|-----12-------12---|
|-------------------|-------------------|-------------------|
|-------------------|-------------------|-------------------|
|-------------------|-------------------|-------------------|


 Chorus
  $
  E E  E E E E  E E   E E  E E E E  E E
|-------------------|-------------------|
|-------------------|-------------------|
|-7-7--7-7-5-5--5-5-|-------------------|
|-------------------|-5-5--5-5-7-7--7-7-|
|
| E E  E E E E  E E   E E  E E E E  E E
|------0--------0---|------0-0------0---|
|-------------------|-------------------|
|-------------------|-------------------|
|-0-0--0-0-0-0--0-0-|-0-0--0-0-0-0--0-0-|
|
| Q    e E Q    e E   Q    e E Q    e E
|-----12-------12---|-----12-------12---|
|-------------------|-------------------|
|-------------------|-------------------|
|-------------------|-------------------|


  E E  E E E E  E E   E E  E E E E  E E
|-------------------|-------------------|
|-------------------|-------------------|
|-7-7--7-7-5-5--5-5-|-------------------|
|-------------------|-5-5--5-5-7-7--7-7-|
|
| E E  E E E E  E E   E E  E E E E  E E
|------0--------0---|------0-0------0---|
|-------------------|-------------------|
|-------------------|-------------------|
|-0-0--0-0-0-0--0-0-|-0-0--0-0-0-0--0-0-|
|
| Q    e E Q    e E   Q    e E Q    e E
|-----12-------12---|-----12-------12---|
|-------------------|-------------------|
|-------------------|-------------------|
|-------------------|-------------------|


  E E  E E E E  E E   E E  E E E E  E E
|-------------------|-------------------|
|-------------------|-------------------|
|-7-7--7-7-5-5--5-5-|-------------------|
|-------------------|-5-5--5-5-7-7--7-7-|
|
| E E  E E E E  E E   E E  E E E E  E E
|------0--------0---|------0-0------0---|
|-------------------|-------------------|
|-------------------|-------------------|
|-0-0--0-0-0-0--0-0-|-0-0--0-0-0-0--0-0-|
|
| Q    e E Q    e E   Q    e E Q    e E
|-----12-------12---|-----12-------12---|
|-------------------|-------------------|
|-------------------|-------------------|
|-------------------|-------------------|


  E E  E E E E  E E   E E  E E E E  E E
|-------------------|-------------------|
|-------------------|-------------------|
|-------------------|---------------5---|
|-7----7---7----7---|-7----7---7-7----7-|
|
| E E  E E E E  E E   E E  E E E E  E E
|------0--------0---|------0-0---0--0-0-|
|-------------------|-------------------|
|-------------------|-------------------|
|-0-0--0-0-0-0--0-0-|-0-0--0-0-0-0--0-0-|
|
| Q    e E Q    e E   Q    e E Q    e E
|-----12-------12---|-----12-------12---|
|-------------------|-------------------|
|-------------------|-------------------|
|-------------------|-------------------|


                                 To Coda
  E E  E E E E  E E   E E  E E E E  E E
|-------------------|----------------------||
|-------------------|---------------------o||
|-------------------|---------------5-----o||
|-7----7---7----7---|-7----7---7-7----7----||
|
| E E  E E E E  E E   E E  E E E E  E E
|------0--------0---|------0-0------0------||
|-------------------|---------------------o||
|-------------------|---------------------o||
|-0-0--0-0-0-0--0-0-|-0-0--0-0-0-0--0-0----||
|
| Q    e E Q    e E   Q    e E Q    e E
|-----12-------12---|-----12-------12------||
|-------------------|---------------------o||
|-------------------|---------------------o||
|-------------------|----------------------||


 Interlude
  E E  E E E E  E E   E E  E E E E  E E
|-------------------|-------------------|
|-------------------|-------------------|
|-------------------|---------------5---|
|-7----7---7----7---|-7----7---7-7----7-|
|
| E E  E E E E  E E   E E  E E E E  E E
|------0--------0---|------0-0---0--0-0-|
|-------------------|-------------------|
|-------------------|-------------------|
|-0-0--0-0-0-0--0-0-|-0-0--0-0-0-0--0-0-|
|
| Q    e E Q    e E   Q    e E Q    e E
|-----12-------12---|-----12-------12---|
|-------------------|-------------------|
|-------------------|-------------------|
|-------------------|-------------------|


  E E  E E E E  E E   E E  E E E E  E E
|-------------------|-------------------|
|-------------------|-------------------|
|-------------------|---------------5---|
|-7----7---7----7---|-7----7---7-7----7-|
|
| E E  E E E E  E E   E E  E E E E  E E
|------0--------0---|------0-0------0---|
|-------------------|-------------------|
|-------------------|-------------------|
|-0-0--0-0-0-0--0-0-|-0-0--0-0-0-0--0-0-|
|
| Q    e E Q    e E   Q    e E Q    e E
|-----12-------12---|-----12-------12---|
|-------------------|-------------------|
|-------------------|-------------------|
|-------------------|-------------------|


  E E  E E E E  E E   E E  E E E E  E E
|-------------------|-------------------|
|-------------------|-------------------|
|-------------------|---------------5---|
|-7----7---7----7---|-7----7---7-7----7-|
|
| E E  E E E E  E E   E E  E E E E  E E
|------0--------0---|------0-0---0--0-0-|
|-------------------|-------------------|
|-------------------|-------------------|
|-0-0--0-0-0-0--0-0-|-0-0--0-0-0-0--0-0-|
|
| Q    e E Q    e E   Q    e E Q    e E
|-----12-------12---|-----12-------12---|
|-------------------|-------------------|
|-------------------|-------------------|
|-------------------|-------------------|


  E E  E E E E  E E   E E  E E E E  E E
|-------------------|-------------------|
|-------------------|-------------------|
|-------------------|---------------5---|
|-7----7---7----7---|-7----7---7-7----7-|
|
| E E  E E E E  E E   E E  E E E E  E E
|------0--------0---|------0-0------0---|
|-------------------|-------------------|
|-------------------|-------------------|
|-0-0--0-0-0-0--0-0-|-0-0--0-0-0-0--0-0-|
|
| Q    e E Q    e E   Q    e E Q    e E
|-----12-------12---|-----12-------12---|
|-------------------|-------------------|
|-------------------|-------------------|
|-------------------|-------------------|


  E E  E E E E  E E   E E  E E E E  E E
|-------------------|-------------------|
|-------------------|-------------------|
|-------------------|---------------5---|
|-7----7---7----7---|-7----7---7-7----7-|
|
| E E  E E E E  E E   E E  E E E E  E E
|------0--------0---|------0-0---0--0-0-|
|-------------------|-------------------|
|-------------------|-------------------|
|-0-0--0-0-0-0--0-0-|-0-0--0-0-0-0--0-0-|
|
| Q    e E Q    e E   Q    e E Q    e E
|-----12-------12---|-----12-------12---|
|-------------------|-------------------|
|-------------------|-------------------|
|-------------------|-------------------|


                            D.S. al Coda
  E E  E E E E  E E   E E  E E E E  E E
|-------------------|---------------------|
|-------------------|---------------------|
|-------------------|---------------5-----|
|-7----7---7----7---|-7----7---7-7----7---|
|
| E E  E E E E  E E   E E  E E E E  E E
|------0--------0---|------0-0------0-----|
|-------------------|---------------------|
|-------------------|---------------------|
|-0-0--0-0-0-0--0-0-|-0-0--0-0-0-0--0-0---|
|
| Q    e E Q    e E   Q    e E Q    e E
|-----12-------12---|-----12-------12-----|
|-------------------|---------------------|
|-------------------|---------------------|
|-------------------|---------------------|


   Outro
    &
    E E  E E E E  E E   E E  E E E E  E E
||--------------------|-------------------|
||o-------------------|-------------------|
||o-------------------|---------------5---|
||--7----7---7----7---|-7----7---7-7----7-|
|
|   E E  E E E E  E E   E E  E E E E  E E
||-------0--------0---|------0-0---0--0-0-|
||o-------------------|-------------------|
||o-------------------|-------------------|
||--0-0--0-0-0-0--0-0-|-0-0--0-0-0-0--0-0-|
|
|   Q    e E Q    e E   Q    e E Q    e E
||------12-------12---|-----12-------12---|
||o-------------------|-------------------|
||o-------------------|-------------------|
||--------------------|-------------------|


  E E  E E E E  E E   E E  E E E E  E E   4x
|-------------------|---------------------||
|-------------------|--------------------o||
|-------------------|---------------5----o||
|-7----7---7----7---|-7----7---7-7----7---||
|
| E E  E E E E  E E   E E  E E E E  E E   4x
|------0--------0---|------0-0------0-----||
|-------------------|--------------------o||
|-------------------|--------------------o||
|-0-0--0-0-0-0--0-0-|-0-0--0-0-0-0--0-0---||
|
| Q    e E Q    e E   Q    e E Q    e E   4x
|-----12-------12---|-----12-------12-----||
|-------------------|--------------------o||
|-------------------|--------------------o||
|-------------------|---------------------||



Duration Legend
---------------
W - whole; H - half; Q - quarter; E - 8th; S - 16th; T - 32nd; X - 64th; a - acciaccatura
+ - note tied to previous; . - note dotted; .. - note double dotted
Uncapitalized letters represent notes that are staccato (1/2 duration)
Irregular groupings are notated above the duration line
Duration letters will always appear directly above the note/fret number it represents the
duration for.  Duration letters with no fret number below them represent rests.  Multi-
bar rests are notated in the form Wxn, where n is the number of bars to rest for.  Low
melody durations appear below the staff

Tablature Legend
----------------
 h   - hammer-on
 p   - pull-off
 b   - bend
 pb  - pre-bend
 r   - bend release (if no number after the r, then release immediately)
 /\  - slide into or out of (from/to "nowhere")
 s   - legato slide
 S   - shift slide
 - natural harmonic
[n]  - artificial harmonic
n(n) - tapped harmonic
 ~   - vibrato
 tr  - trill
 T   - tap
 TP  - trem. picking
 PM  - palm muting
\n/  - tremolo bar dip; n = amount to dip
 \n  - tremolo bar down
 n/  - tremolo bar up
/n\  - tremolo bar inverted dip
 =   - hold bend; also acts as connecting device for hammers/pulls
 <> - volume swell (louder/softer)
 x   - on rhythm slash represents muted slash
 o   - on rhythm slash represents single note slash

Misc Legend
-----------
 |  - bar
||  - double bar
||o - repeat start
o|| - repeat end
*|  - double bar (ending)
 :  - bar (freetime)
 $  - Segno
 &  - Coda
Tempo markers -  = BPM(8/16=s8/s16), where s8 = swing 8ths, s16 = swing 16ths





Comments


Popular Gary Glitter tabs & chords
Leader Of The Gang Chords
I Didnt Know I Loved You Till I Saw You Rock Roll Tabs
Rock And Roll Part 2 Tabs
Rock And Roll Part 2 1 Tabs
Rock N Roll Part 2 Tabs
Rock N Roll Part 2 1 Tabs
Rock N Roll Part 2 2 Tabs
Rock N Roll Part 2 3 Tabs
Rock N Roll Part 2 Intro Tabs
Leader Of The Gang Ukulele


Song lyrics



↑ Back to top | Tablatures and chords are parodies/interpretations of the original songs. You may use it for private study, scholarship, research or language learning purposes only
© 2014 AZChords.com Contact us | Privacy policy | DMCA | Add/correct tabs | Request tabs | Top 50 tabs