» » »

Put My Misery On Display Tabs (ver.1)

Artists:  A B C D E F G H I J K L M N O P Q R S T U V W X Y Z # 

Put My Misery On Display Tabs (ver.1)

Gary Allan
Rating:
0/5 (0 votes)

Hard to play? Try these video lessons and learn fast.
                (Intro)
/ = slide up
b = bend
r = release bend
p = pull off
bh= bend and hold


E-------------------------------|
B-----------------10-12-12b-10--|
G------------9-11---------------|
D-----7-9/11--------------------|
A-7/9---------------------------|
E-------------------------------|

E-----------------------------------|
B-12-10-12b13r12b13-12b13r12p10-----|
G-------------------------------13--|
D-----------------------------------|
A-----------------------------------|
E-----------------------------------|

E--------------------------------12-12-------------12-------|
B-------------------10-12-12bh13-------13r12-12-10----10-10-|
G-11-10---------/12-----------------------------------------|
D-------11-10-9---------------------------------------------|
A-----------------------------------------------------------|
E-----------------------------------------------------------|

E---------------------------------------------|
B-9-10-12-12b13r12b13r12b13r12b13r12-10-------|
G---------------------------------------10-9--|
D---------------------------------------------|
A---------------------------------------------|
E---------------------------------------------|
            
Hard to play? Try these video lessons and learn fast. | Correct




comments powered by Disqus
↑ Back to top | Tablatures and chords are parodies/interpretations of the original songs. You may use it for private study, scholarship, research or language learning purposes only