» » »

Gary Allan, Like It's A Bad Thing Tabs (ver.1)

Artists:  A B C D E F G H I J K L M N O P Q R S T U V W X Y Z # 

Like It's A Bad Thing Tabs (ver.1)

Gary Allan Tabs
 Rating:
4/5 (4 votes)
Like It's A Bad Thing lessons Tabs too difficult? Try these video lessons and learn fast
1
                
Capo III

Intro: (Bm-A-G)  (Bm-A-G)

             Bm
They say, I drive a little fast
                A                       G                     Bm
Say, I like to push the limit, everyday I'm living like it was my last,

They say, Im proud of my scars
          A                  G              D
Each one tells a story, got guts and glory down to an art
        A                            Bm               G
Say, I know whats its like, to see life pass right before my eyes

Like it's a bad thing.

Chorus
         D                        A                     G
I dont know about you, but I was put here to live and love
               A                          G
So, what if I dont do it like everybody else does
      D                                A
They say I'm out on the edge, I'm too willing to risk
             Bm                     Em              G     D
Every bone, every breath, they say, all I am is a crazy dream
            Bm         A-G
Like it's a bad thing.


        Bm
So, my heart's been broke
       A                     G                 D
So, I keep on falling, Im nothing but all in when I let go,
   A                                    Bm                         G
I wear it on my sleeve, Yeah, they call me a fool cause I still believe
     D           G
Like it's a bad thing.

Chorus
         D                        A                     G
I dont know about you, but I was put here to live and love
               A                          G
So, what if I dont do it like everybody else does
      D                                A
They say I'm out on the edge, I'm too willing to risk
             Bm                     Em              G     D
Every bone, every breath, they say, all I am is a crazy dream
            Bm         A-G
Like it's a bad thing.

Instrumental:

Guitar 1
E--------------------------------------------------|
B--------------------------------------------------|
G-----5-----7-----5--------------------------------|
D-5h7---5h7---5h7---5b(6)r5-3-3-5-5b(6)-3----------|
A--------------------------------------------------|
E--------------------------------------------------|

Guitar 2
E--------------------------------------------------|
B--------------------------------------------------|
G--------------------------------------------------|
D-----7-----7-----7--------------------------------|
A-7h8---7h8---7h8---7b(8)r7-5-5-7-7b(8)-5----------|
E--------------------------------------------------|

Guitar 3
E--------------------------------------------------|
B------------------------------------------6p3---3-|
G----------------------------------------------5---|
D--------------------------------------------------|
A--------------------------------------------------|
E--------------------------------------------------|

Guitar 1
E------------------------------------------13----13-------------------------|
B----------8/10---------10/13--------13/15----15----15----------------------|
G--10-9-10------10-9-10-------10\9-9----------------------------------------|
D---------------------------------------------------------------------------|
A---------------------------------------------------------------------------|
E---------------------------------------------------------------------------|

Guitar 2
E---------------------------------------------------------------------------|
B---------------------------------------------------------------------------|
G---------4/5------------4/5---------7/10--10-7-10-7------------------------|
D-7--5-7--------7-5-7--------7--5-5-----------------------------------------|
A---------------------------------------------------------------------------|
E---------------------------------------------------------------------------|

Guitar 3
E-------------------------------------------------------------13------------|
B---------------------------------------------------------------------------|
G-----------------------------------------------------12bh(14)---(14)r12-10-|
D---------------------------------------------------------------------------|
A---------------------------------------------------------------------------|
E---------------------------------------------------------------------------|


Repeat Chorus
             A        G
Like it's a bad thing
                 Bm    A-G
Like it's a bad thing
            
Submit corrections

comments powered by Disqus
↑ Back to top | Gary Allan Tabs for Like It's A Bad Thing. Lyrics for acoustic guitar and electric guitar. 1 Tablatures and chords are parodies/interpretations of the original songs. You may use it for private study, scholarship, research or language learning purposes only