» » »

Gary Allan, Life Aint Always Beutiful Tabs (ver.1)

Artists:  A B C D E F G H I J K L M N O P Q R S T U V W X Y Z # 

Life Aint Always Beutiful Tabs (ver.1)

Gary Allan Tabs
Rating:
0/5 (0 votes)
Hard to play? Try these video lessons and learn fast.
                Wanted to learn how to finger pick the chords to this song so i learned this way 

Intro  
  D      A  G         D      A  G
e---0h2----------3------0h2--------------|
B------2---2--3---3--------2---2--3---3--|
G--2-----------0---0---2-----------0-----|
D-0-------2-----------0-------2-----0----|
A--------0---2---------------0---2-------|
E-----------3---3---------------3----3---|

life ain't always beautiful,Sometimes it's just plain hard 
  D      A    G             D    A    G
e---0h2---------3-----------2---------3--3-----|
B------2---2-----3-----------3-3-2--2--3---3-3-|
G--2--------------0-----------2---2---------0--|
D-0-------2----0------------0------2-----------|
A--------0----2------------------0------2------|
E------------3------------------------3--------|

Life can knock you down,it can break your heart
  D    A    G         D    A    G
e-2---------3--3------2---------3--3-----|
B--3-3-2--2-----3-3----3-3-2--2--3---3-3-|
G---2---2--------0------2---2---------0--|
D-0------2----0-------0------2-----------|
A------0-----2-------------0------2------|
E-----------3-------------------3--------|

Life ain't always beautiful,You think you're on your way
  D    A    G          D    A    G
e-2---------3--3-------2---------3--3-----|
B--3-3-2--2------3-3----3-3-2--2--3---3-3-|
G---2---2---------0------2---2---------0--|
D-0------2----0--------0------2-----------|
A------0-----2--------------0------2------|
E-----------3--------------------3--------|

And it's just a dead end road,at the end of the day
  D    A     G         D    A    G
e-2----------3---------2---------3--3-----|
B--3-3-2--2--3----------3-3-2--2--3---3-3-|
G---2---2----0-----------2---2---------0--|
D-0------2---0---------0------2-----------|
A------0-----2--------------0------2------|
E------------3-------------------3--------|

D                 A        G
But the struggles make you stronger

D               A        G
And the changes make you wise.

D                 A
And happiness has it's own way

   G
Of takin' it's sweet time

 D          A      G
No, life ain't always beautiful

D          A    G
Tears will fall sometimes

D          A      G
Life ain't always beautiful
                       
                        D A G
But it's a beautiful ride

D          A      G
Life ain't always beautiful

D            A         G
Some days, I miss your smile

D       A      G
I get tired of walkin' all
                  
                 D A G
These lonely miles

D              A        G
And I wish for just one minute

D                A      G
I could see your pretty face

D           A
Guess I can dream

    G                      D A G
But life don't work that way

D                 A       G
But the struggles make me stronger

D                A      G
And the changes make me wise

D                 A
And happiness has it's own way

      G
Of takin' it's sweet time

    D          A      G
No, life ain't always beautiful

D          A       G
But I know I'll be fine

     D          A      G
Hey, life ain't always beautiful

                        D A G D A G
But it's a beautiful ride

                   D A G
What a beautiful ride
            

comments powered by Disqus
↑ Back to top | Gary Allan Tabs for Life Aint Always Beutiful. Lyrics for acoustic guitar and electric guitar. Tablatures and chords are parodies/interpretations of the original songs. You may use it for private study, scholarship, research or language learning purposes only