>
 >
The Thunder Rolls For 2 Guitars

The Thunder Rolls For 2 Guitars Guitar Tabs

Garth Brooks - The Thunder Rolls For 2 Guitars chords, tabs, tablatures, lyrics

Guitar lessons | Add/correct | Request | Top 50 tabs Artists:  A B C D E F G H I J K L M N O P Q R S T U V W X Y Z 0-9

The Thunder Rolls For 2 Guitars Guitar Tabs – Garth Brooks

CD, Sheet music, Poster

Do you like The Thunder Rolls For 2 Guitars? Share with your friends now
Tabs
The Thunder Rolls                           By Garth Brooks & Pat Alger 

         

 Intro
  
  Dm                                    Dm
 4/4
  Gtr I
  S S S S  S  S S S S S S S  S  S S S   S S S S  S  S S S S S S S  S  S S S
|-------------------------------------|--------------------------------------|
|-----3----3------3-----3----1------1-|-----3----3------3-----3----1------1--|
|---2---2-----2-----2-----2-----2-----|---2---2-----2-----2-----2-----2------|
|-0-------------0-----0-----------0---|-0-------------0-----0-----------0----|
|-------------------------------------|--------------------------------------|
|-------------------------------------|--------------------------------------|
|
| Gtr II
| E   S S +S  E   S S S S S +S  S E     E   S S +S  E   S S S S S +S  S E
|-------------0-----------------------|-------------0------------------------|
|-------6-(6)-------5h6---5-(5)h6-----|-------6-(6)-------5-6---5-(5)h6------|
|-----7-----------7-----7---------7---|-----7-----------7-----7---------7----|
|-0-----------------------------------|-0------------------------------------|
|-------------------------------------|--------------------------------------|
|-------------------------------------|--------------------------------------|


  Dm                                    Dm
  S S S S  S  S S S S S S S  S  S S S   S S S S  S  S S S S S S S  S  S S S
|-------------------------------------|-------------------------------------|
|-----3----3------3-----3----1------1-|-----3----3------3-----3----1------1-|
|---2---2-----2-----2-----2-----2-----|---2---2-----2-----2-----2-----2-----|
|-0-------------0-----0-----------0---|-0-------------0-----0-----------0---|
|-------------------------------------|-------------------------------------|
|-------------------------------------|-------------------------------------|
|
| E   S S +S  E   S S S S S +S  S E     E   S S +S  E   S S S S S +S  S E
|-------------0-----------------------|-------------0-----------------------|
|-------6-(6)-------5h6---5-(5)h6-----|-------6-(6)-------5h6---5-(5)h6-----|
|-----7-----------7-----7---------7---|-----7-----------7-----7---------7---|
|-0-----------------------------------|-0-----------------------------------|
|-------------------------------------|-------------------------------------|
|-------------------------------------|-------------------------------------|


 Verse 1
  Dm                                Bb
  S S S S S S S S S S S S S S E     E S S S S S S S S S S  S  S S S
|---------------------------------|---------------------------------|
|-----3---3-----3-----3---3-------|---3---3-----3-----3----3------3-|
|---2---2---2-----2-----2---2-----|-----3---3-----3-----3-----3-----|
|-0-----------0-----0---------0---|-3---------3-----3-----------3---|
|---------------------------------|---------------------------------|
|---------------------------------|---------------------------------|
|
| S S S S S S S S S S S S S S S S   E S S S S S S S E   S +S  S S S
|---------------------------5-----|---------------------------------|
|-----6---6-----------6---6-------|---6---6-------6h8---6-(6)-------|
|---7---7---7---7---7---7-------7-|-----7---7---7-------------7---7-|
|-0-----------0---0-----------0---|-----------8-----------------8---|
|---------------------------------|---------------------------------|
|---------------------------------|-6-------------------------------|


  A                                 A
  S S S S S S S S S S S S S S S S   S S S S S S S S S S S S S S S S
|---------------------------------|---------------------------------|
|---2-----2---------2-----2-------|---2-----2-----------3---3-----3-|
|-----2-----2---2-----2-----2---2-|-----2-----2---2---2---2---2-----|
|-------------2---------------2---|-------------2---0-----------0---|
|-0-----0---------0-----0---------|-0-----0-------------------------|
|---------------------------------|---------------------------------|
|
| E   S S S S S S E   S S S S S S   E   S S S S S S S S S S S S S S
|---------------------------------|-----------------------0-------5-|
|-----5---------5-----5---------5-|-------5-------------6-------6---|
|-------6---6-----------6---6-----|-----6-----6---5---7-------7-----|
|-----7-------7-------7-------7---|-------------7---0-------0-------|
|---------7---------------7-------|---------7-----------------------|
|-5---------------5---------------|-5-------------------------------|


  Dm                                Bb
  S S S S S S S S S S S S S S E     E S S S S S S S S S S  S  S S S
|---------------------------------|---------------------------------|
|-----3---3-----3-----3---3-------|---3---3-----3-----3----3------3-|
|---2---2---2-----2-----2---2-----|-----3---3-----3-----3-----3-----|
|-0-----------0-----0---------0---|-3---------3-----3-----------3---|
|---------------------------------|---------------------------------|
|---------------------------------|---------------------------------|
|
| S S S S S S S S S S S S S S S S   E S S S S S S S E   S +S  S S S
|---------------------------5-----|---------------------------------|
|-----6---6-----------6---6-------|---6---6-------6h8---6-(6)-------|
|---7---7---7---7---7---7-------7-|-----7---7---7-------------7---7-|
|-0-----------0---0-----------0---|-----------8-----------------8---|
|---------------------------------|---------------------------------|
|---------------------------------|-6-------------------------------|


  A                                 A
                                   2/4
  S S S S S S S S S S S S S S S S   S S S S S S S S
|---------------------------------|-----------------|
|---2-----2---------2-----2-------|---2-----2-------|
|-----2-----2---2-----2-----2---2-|-----2-----2---2-|
|-------------2---------------2---|-------------2---|
|-0-----0---------0-----0---------|-0-----0---------|
|---------------------------------|-----------------|
|
| E   S S S S S S E   S S S S S S   E   S S S S S S
|---------------------------------|-----------------|
|-----5---------5-----5---------5-|-------5---------|
|-------6---6-----------6---6-----|-----6-----6---5-|
|-----7-------7-------7-------7---|-------------7---|
|---------7---------------7-------|---------7-------|
|-5---------------5---------------|-5---------------|


  Dm                                    C9                        G/B
 4/4
  S S S S  S  S S S S S S S  S  S S S   S S S S  S  S S S S S S S S S S S
|-------------------------------------|------------------------------------|
|-----3----3------3-----3----3------3-|-----3----3------3-----3-------3----|
|---2---2-----2-------2---2-----2-----|---0---0-----0-------0---0---0---0--|
|-0-------------0---0-------------0---|------------------------------------|
|-------------------------------------|-3-------------3---3-------2--------|
|-------------------------------------|------------------------------------|
|
| E   S S +S  E   S S S S S +S  S S S   E   S S +S  E   S S S E   E   S S
|-------------0-----------------5---5-|-------------0-----0----------------|
|-------6-(6)-------5h6---------------|-------3-(3)-----3---3-----------3--|
|-----7-----------7-------7-(7)-------|-----0-----------------0-------0----|
|-0---------------------0---------0---|------------------------------------|
|-------------------------------------|-3-------------------------2--------|
|-------------------------------------|------------------------------------|


  A           Asus2A      Dm
  S S S S  S  S  E H      S S S S  S  S S S S S S S  S  S E
|------------------0----|-------------------------------------|
|-----2-------3--3-2----|-----3----3------3-----3----3--------|
|---2---2-----2--2-2----|---2---2-----2-----2-----2-----2-----|
|-------------2--2-2----|-0-------------0-----0-----------0---|
|-0--------0--0--0-0----|-------------------------------------|
|-





Comments


Popular Garth Brooks tabs & chords
That Summer Bass Tabs
I Don't Have To Wonder Anymore Chords
It Was Your Song Chords
Love Will Always Win(w/trisha Yearwood) Chords
Ain't Going Down 'Till The Sun Comes Up Tabs
I Don Have To Wonder Tabs
Lost In You Tabs
Much Too Young Tabs
To Make You Feel My Love Tabs
Cowboy Billy Ukulele


Song lyrics



↑ Back to top | Tablatures and chords are parodies/interpretations of the original songs. You may use it for private study, scholarship, research or language learning purposes only
© 2014 AZChords.com Contact us | Privacy policy | DMCA | Add/correct tabs | Request tabs | Top 50 tabs