» » »

Garth Brooks, Rollin' Tabs (ver.1)

Artists:  A B C D E F G H I J K L M N O P Q R S T U V W X Y Z # 

Rollin' Tabs (ver.1)

Garth Brooks Tabs
 Rating:
4/5 (4 votes)
Rollin' lessons Tabs too difficult? Try these video lessons and learn fast
1
                ROLLIN'

Intro

Key of E

E-------------------------------------------------------
B-------------------------------------------------------
G-------------------------------------------------------
D-------------------------------------------------------
A-------5p0---4p0-----5---5p2---4---2p0-----------------
E--0---------------0----------------------b3--0---------

E-------------------------------------------------------
B-------------------------------------------------------
G-------------------------------------------------------
D-------------------------------------------------------
A-----5p2--4p0----5---5--2h4--2h4------5p0-4p0-----5----
E--0-----------0-------------------0------------0-------

E-------------------------------------------------------
B-------------------------------------------------------
G-------------------------------------------------------
D-------------------------------------------------------
A--5p2--4--2--0---------5p2--4p0-----5----5--2--4--2-4--
E----------------b3--0------------0---------------------
            
Submit corrections

comments powered by Disqus
↑ Back to top | Garth Brooks Tabs for Rollin'. Lyrics for acoustic guitar and electric guitar. 1 Tablatures and chords are parodies/interpretations of the original songs. You may use it for private study, scholarship, research or language learning purposes only