» » »

Garth Brooks, Red Strokes Tabs (ver.2)

Artists:  A B C D E F G H I J K L M N O P Q R S T U V W X Y Z # 

Red Strokes Tabs (ver.2)

Garth Brooks Tabs
 Rating:
4/5 (4 votes)
Red Strokes lessons Tabs too difficult? Try these video lessons and learn fast
                 

Red Strokes 

This one is a fairly simple Solo, mostley 
bends and slides and a few scale runs. 
Happy guitaring 

cspirits at ozemail.com.au

                                                            
E||------------------------------|--------------------------|
B||------11------13------13b-----|----13b-13b-13r---11------|
G||--10------10------10----------|--------------------------|
D||------------------------------|--------------------------|
A||------------------------------|--------------------------|
E||------------------------------|--------------------------|


                                                    
-------8--------------|-----------10-11b-----11r---|
--8b------8r---8------|--4/-8--11------------------|
----------------------|----------------------------|
----------------------|----------------------------|
----------------------|----------------------------|
----------------------|----------------------------|


                                                              
--10----11h-10h-8------------|--11-13------------------------|
-------------------11--13b---|--------13b---13r--------------|
-----------------------------|--------------------8--10--11--|
-----------------------------|-------------------------------|
-----------------------------|-------------------------------|
-----------------------------|-------------------------------|


                                                            
-------------8--6-----------|------------------------------|
--8--10--11-----------------|------11h-13h-11--10----11----|
-------------------8b-------|------------------------------|
----------------------------|------------------------------|
----------------------------|------------------------------|
----------------------------|------------------------------|


                                                    
--------------------------|------------------------|
--13----13b-------11--13--|--13r-------11----13----|
--------------------------|------------------------|
--------------------------|------------------------|
--------------------------|------------------------|
--------------------------|------------------------|


                                                                  
----------------13------13--13--|------13--13--------13--13------|
--11----10--11------11----------|--11------------11----------11--|
--------------------------------|--------------------------------|
--------------------------------|--------------------------------|
--------------------------------|--------------------------------|
--------------------------------|--------------------------------|


                          
--13------13b-----------||
------11----------------||
------------------------||
------------------------||
------------------------||
------------------------||





            
Submit corrections

comments powered by Disqus
↑ Back to top | Garth Brooks Tabs for Red Strokes. Lyrics for acoustic guitar and electric guitar. Tablatures and chords are parodies/interpretations of the original songs. You may use it for private study, scholarship, research or language learning purposes only