» » »

Garth Brooks, Nobody Gets Off In This Town Tabs (ver.1)

Artists:  A B C D E F G H I J K L M N O P Q R S T U V W X Y Z # 

Nobody Gets Off In This Town Tabs (ver.1)

Garth Brooks Tabs
 Rating:
4/5 (4 votes)
Nobody Gets Off In This Town lessons Tabs too difficult? Try these video lessons and learn fast
                Nobody Gets Off In This Town
By Garth Brooks




Intro:
e------------------------------------7-6-5-3s4----------------
B-11s12---10s11----9s10----8s9-----x-----------5--------------
G------13-------12------11-----10-x--------------4------5-4-4-
D--------------------------------------------------7--6-------
A-------------------------------------------------------------
E-------------------------------------------------------------


Solo:
e-----------------------------------------------13-----------------------------
B-8b-(8)s6-8—---8b-(8)s6-8----8b-(8)s6-8-6----13---16b-16-13-------------------
G-------------------------------------------14---------------15b(15)s13---15---
D-----------------------------------------------------------------------15---15
A------------------------------------------------------------------------------
E------------------------------------------------------------------------------


e--------------------------------3b(3)s-1-3b-----8-7-6-4s5---------------
B-13------------------3-6---3-6----------------------------6-------------
G-13-14-----------2S3-----4-------------------3--------------5-----4-5-6-
D-------15-13-15S----------------------------------------------8-7-------
A------------------------------------------------------------------------
E------------------------------------------------------------------------
            
Submit corrections

comments powered by Disqus
↑ Back to top | Garth Brooks Tabs for Nobody Gets Off In This Town. Lyrics for acoustic guitar and electric guitar. Tablatures and chords are parodies/interpretations of the original songs. You may use it for private study, scholarship, research or language learning purposes only