>
 >
Friends In Low Places 2

Friends In Low Places 2 Guitar Tabs

Garth Brooks - Friends In Low Places 2 chords, tabs, tablatures, lyrics

Guitar lessons | Add/correct | Request | Top 50 tabs Artists:  A B C D E F G H I J K L M N O P Q R S T U V W X Y Z 0-9

Friends In Low Places 2 Guitar Tabs – Garth Brooks

CD, Sheet music, Poster

Do you like Friends In Low Places 2? Share with your friends now
Tabs

FRIENDS IN LOW PLACES
As recorded by Garth Brooks

        

Words and Music by DeWayne Blackwell and Earl Bud Lee

Gtr I (E A D G B E) - 'Acoustic Capo 2nd Fret'
Gtr II (E A D G B E) - 'Light Dist., No Capo'
Gtr III (E A D G B E) - 'Light Dist., No Capo 2'
Gtr IV (E A D G B E) - 'Violin'
Gtr V (E A D G B E) - 'Pedal Steel Guitar'

 Intro
  Moderately Q=112
 4/4
  Gtr I
  E E E E +H       E E E E +H       E E E E +E  E Q    E E E E H
|----------------|----------------|---------------3--|-------2p0----||
|-------0-(0)----|-------3-(3)----|-------1-(1)------|-----3--------||
|-----0----------|-----4----------|-----0------------|---2----------||
|---0------------|---3------------|---2---------2----|-0------------||
|----------------|----------------|-0----------------|--------------||
|-3--------------|-4--------------|------------------|--------------||


 1st Verse
  E E E E +E  E Q    E E E E +E  E Q    E E E E +Q   Q    E E E E E E Q
|-------------3----|-------------4----|--------------3--|-------3---------|
|-------0-(0)------|-------3-(3)------|-------1-(1)-----|---0h1---1-------|
|-----0------------|-----4------------|-----0-----------|-----------2-----|
|---0-----------0--|---3-----------3--|---2----------2--|-------------2---|
|------------------|------------------|-0---------------|-0---------------|
|-3----------------|-4----------------|-----------------|-----------------|


  E E E E E E E E   E E E E E E E E   E E E E E E E E   E E E E E E Q
|-------2-----0---|-------2---------|-----------3-----|---------3-------|
|-----3---------3-|-----3-------3---|-------0---------|-------0-----1---|
|---2-------2-----|---2-------2-----|-----0---------0-|-----0-----------|
|-0-------0-------|-0-------0-----0-|---0---------0---|---0-------0-2---|
|-----------------|-----------------|-----------------|-----------------|
|-----------------|-----------------|-3-------3-------|-3---------------|


  E E E E +E  E E E   E E E E +E  E E E   E E E E +E  E E E   E E E E E E Q
|-------------3-----|-------------4-----|-------------0-----|-----------------|
|-------0-(0)-------|-------3-(3)-------|-------1-(1)-----0-|-----4---3-------|
|-----0-----------0-|-----4-----------4-|-----2-------------|-------------5---|
|---0-----------0---|---3-----------3---|---2-----------2---|---5---5---------|
|-------------------|-------------------|-0-----------------|-3---------3-----|
|-3-----------------|-4-----------------|-------------------|-----------------|


  Gtr II
  <                                <
  Q   +Q    +H          +Q    Q    Q    +Q
|---------------------|-----------------------|
|---------------------|-----------------------|
|---------------------|-----------------------|
|---------------------|-----------------------|
|---------------------|-----------------------|
|-0---(0)---(0)-------|-(0)--------0----(0)---|
|
| Gtr I
| E E  E  E +E  E E E    E  E E E +E  E  E  E
|---------2-(2)-----2-|---------2-(2)-------2-|
|------3----------3---|-------3----------3----|
|---2-----------2-----|-----2---------2-------|
|-0-------------------|--0--------------------|
|---------------------|-----------------------|
|---------------------|-----------------------|


  +W                  +Q    E E E E E E
|-------------------|---------------------||
|-------------------|---------------------||
|-------------------|---------------------||
|-------------------|---------------------||
|-------------------|---------------------||
|-(0)---------------|-(0)---0-0-2-2-4-4---||
|
|  E  E E E E E E E    E  E E E E E E S S
|---------2-------2-|-----2-2-2-2-2-2-3-3-||
|-------3-------3---|-----3-3-3-3-3-3-3-3-||
|-----2-------2-----|-----2-2-2-2-2-2-0-0-||
|--0--------0-------|--0--0-0-0-0-0-0-0-0-||
|-------------------|-----------------2-2-||
|-------------------|-----------------3-3-||


 1st and 2nd Chorus
  $
  Q  Q  E E E E   +Q.     E a E E a E E   +Q   Q  E E E E   Q   Q  E Q   E
|---------------|-----------------------|-----------------|-----------------|
|---------------|-----------------------|-----------------|-----------------|
|----2----2---2-|-(2)-----------2-------|-----------2---2-|----------2------|
|-2--2----------|---------------2-------|------2----------|-----2-----------|
|-0-----0---0---|---------0-2s4---4s2-0-|-(0)-----0---0---|-0------------0--|
|---------------|-----------------------|-----------------|-----------------|
|
| Q  Q  E E Q      E  E Q     E E   E E    Q   Q  E E Q     E E Q  E E E E
|-3--3--3-3-3---|--3--3-3-----3-3---3-3-|--3---3--3-3-3---|-3-3-3--3-3-3-3--|
|-3--3--3-3-3---|--3--3-3-----3-3---3-3-|--3---3--3-3-3---|-3-3-3--3-3-3-3--|
|-0--0--0-0-0---|--0--0-0-----0-0---0-0-|--0---0--0-0-0---|-0-0-0--0-0-0-0--|
|-0--0--0-0-0---|--0--0-0-----0-0---0-0-|--0---0--0-0-0---|-0-0-0--0-0-0-0--|
|-2--2--2-2-2---|--2--2-2-----2-2---2-2-|--2---2--2-2-2---|-2-2-2--2-2-2-2--|
|-3--3--3-3-3---|--3--3-3-----3-3---3-3-|--3---3--3-3-3---|-3-3-3--3-3-3-3--|


              ~~~~~~~~~~~~~~~~~
  Q  q  E E E E   +H       +E  E E   +E
|---------------|------------------------|
|---------------|------------------------|
|----4--2-4---4-|-(4)------(4)-----------|
|----4--2-4---4-|-(4)------(4)-4---------|
|-2-------------|--------------0---------|
|---------------|----------------2b3r(2)-|
|
| Q  Q  E E E E   +E  E Q   E  E E    E
|-0--0--0-0-0-0-|-(0)-0-0---0--0-0----0--|
|-1--1--1-1-1-1-|-(1)-1-1---1--1-1----1--|
|-2--2--2-2-2-2-|-(2)-2-2---2--2-2----2--|
|-2--2--2-2-2-2-|-(2)-2-2---2--2-2----2--|
|-0--0--0-0-0-0-|-(0)-0-0---0--0-0----0--|
|---------------|------------------------|


  H      +E  E E E   +E  E E E E E E E
|------------------|--------------------|
|------------------|--------------------|
|------------------|--------------------|
|----------------2-|-(2)-2--------------|
|------------2h4-2-|-(2)----------------|
|-0------(0)-------|-------0-0-2-2-4-4--|
|
| Q  E E  E  E E E   +E  E E E E E E E
|-2--2-2--2--2-2-2-|-(2)-2-2-2-2-2-2-2--|
|-3--3-3--3--3-3-3-|-(3)-3-3-3-3-3-3-3--|
|-2--2-2--2--2-2-2-|-(2)-2-2-2-2-2-2-2--|
|-0--0-0--0--0-0-0-|-(0)-0-0-0-0-0-0-0--|
|------------------|--------------------|
|------------------|--------------------|


   Q   Q   E  E  E E   +Q.       E a  E  E a  E  E
|--------------------|-----------------------------|
|--------------------|-----------------------------|
|------2------2----2-|-(2)---------------2---------|
|--2---2-------------|-------------------2---------|
|--0-------0-----0---|-----------0-2s=4----4s=2--0-|
|--------------------|-----------------------------|
|
|  Q   Q   E  E  Q      E   E  Q      E  E    E  E
|-^3--^3--^3-^3-^3---|-^3--^3-^3-----^3-^3---^3-^3-|
|-^3--^3--^3-^3-^3---|-^3--^3-^3-----^3-^3---^3-^3-|
|-^0--^0--^0-^0-^0---|-^0--^0-^0-----^0-^0---^0-^0-|
|-^0--^0--^0-^0-^0---|-^0--^0-^0-----^0-^0---^0-^0-|
|-^2--^2--^2-^2-^2---|-^2--^2-^2-----^2-^2---^2-^2-|
|-^3--^3--^3-^3-^3---|-^3--^3-^3-----^3-^3---^3-^3-|


  +Q      Q   E  E  Q      W
|-----------------------|-------|
|-----------------------|-------|
|----------------2------|--2----|
|---------2-------------|--2----|
|-(0)---------0-----0---|--0----|
|-----------------------|-------|
|
|  E   E  Q   E  E  E E    W
|-^3--^3-^3--^3-^3-^3---|-^3----|
|-^3--^3-^3--^3-^3-^3---|-^3----|
|-^0--^0-^0--^0-^0-^0---|-^0----|
|-^0--^0-^0--^0-^0-^0---|-^0----|
|-^2--^2-^2--^2-^2-^2---|-^2----|
|-^3--^3-^3--^3-^3-^3-3-|-------|


                               To Coda
  Gtr III
  W                     W
|---------------------|---------------|
|---------------------|---------------|
|---------------------|---------------|
|---------------------|---------------|
|---------------------|---------------|
|---------------------|---------------|
|
| Gtr II
| H     +E  e E   +E    H.         Q
|---------------------|---------------|
|---------------------|---------------|
|---------------------|---------------|
|-4-----(4)-----------|---------------|
|-2-----(2)-2---------|-2-------------|
|-------------2b3r(2)-|-0-------------|
|
| Gtr I
| Q  Q   E  E E    E    Q   Q  E E Q
|-0--0---0--0-0----0--|-2---2--2-2-2--|
|-1--1---1--1-1----1--|-3---3--3-3-3--|
|-2--2---2--2-2----2--|-2---2--2-2-2--|
|-2--2---2--2-2----2--|-0---0--0-0-0--|
|-0--0---0--0-0----0--|---------------|
|---------------------|---------------|


  H     Q.     E      +E  e e e e +E  E E
|--------------5----|-----------------------||
|--------------5b7==|=(5)-5-5-5-5r(5)-2-----||
|-------------------|-------------------4---||
|-------------------|-----------------------||
|-------------------|-----------------------||
|-------------------|-----------------------||
|
| Q  Q  E  E E E       E  E E E E  E  E E
|-------------------|-----------------------||
|-------------------|-----------------------||
|----2-----2---2----|-----------------------||
|----2--------------|-----2-----------------||
|-0-----0----0------|--0--------------------||
|-------------------|-------0-0-2--2--4-4---||
|
| Q  Q  Q    E E       E  E E E E  E  E S S
|-3--3--3----3-3----|--3--3-3-3-3--3--3-3-3-||
|-3--3--3----3-3----|--3--3-3-3-3--3--3-3-3-||
|-0--0--0----0-0----|--0--0-0-0-0--0--0-0-0-||
|-0--0--0----0-0----|--0--0-0-0-0--0--0-0-0-||
|-2--2--2----2-2----|--2--2-2-2-2--2--2-2-2-||
|-3--3--3----3-3----|--3--3-3-3-3--3--3-3-3-||


 Guitar Solo
              ~~~~~~
  e   E   +E  E +E  E  Q     Q.     E E Q   E   q    q     S +S  E E E
|--------------------------|------------------|------------------------|
|--------------------------|------------------|-5----5-----5-------5-5-|
|-4b6-4b6r(4)-2-(2)--------|------------2---2-|-4b6--4b6===4r(4)p2-4-2-|
|--------------------------|------------2---2-|------------------------|
|---------------------12S==|=0------2s4-------|------------------------|
|--------------------------|------------------|------------------------|
|
| Q        Q     E  E  E E   Q    Q   E E E E   Q    Q     E     E E E
|--------------------------|------------------|------------------------|
|--------------------------|------------------|------------------------|
|----------2--------2----2-|------2-----2---2-|------2-----------2---2-|
|----------2---------------|------2-----------|------2-----------------|
|-0--------------0-----0---|-0--------0---0---|-0----------0-------0---|
|--------------------------|------------------|------------------------|
|
| Q        Q     E  E  Q     E  E Q   E E E E   Q    Q     E     E Q
|-3--------3-----3--3--3---|-3--3-3---3-3-3-3-|-3----3-----3-----3-3---|
|-0--------0-----0--0--0---|-3--3-3---3-3-3-3-|-3----3-----3-----3-3---|
|-0--------0-----0--0--0---|-0--0-0---0-0-0-0-|-0----0-----0-----0-0---|
|-0--------0-----0--0--0---|-0--0-0---0-0-0-0-|-0----0-----0-----0-0---|
|--------------------------|-2--2-2---2-2-2-2-|-2----2-----2-----2-2---|
|-3--------3-----3--3--3---|-3--3-3---3-3-3-3-|-3----3-----3-----3-3---|


                          ~~
  a q  Q  S S E E   +E    H.           E   +E
|-----------------------|----------------------|
|-5s7--5----------------|----------------------|
|---------6s4p2-4b6-(4)-|-4--------------------|
|-----------------------|--------------4b5-(4)-|
|-----------------------|----------------------|
|-----------------------|----------------------|
|
| a q  Q  S S E E    E    Q   Q  +Q.        E
|-----------------------|----------------------|
|-----------------------|----------------------|
|-----------------------|-----4--(4)-----------|
|-2s4--2----------------|-----4--(4)-----------|
|---------4s2p0-2s===4--|-2-----------------0--|
|-----------------------|----------------------|
|
|   Q  Q  E   E E    E    Q   Q   E  E E    E
|---3--3--3---3-3----3--|-0---0---0--0-0----0--|
|---3--3--3---3-3----3--|-1---1---1--1-1----1--|
|---0--0--0---0-0----0--|-2---2---2--2-2----2--|
|---0--0--0---0-0----0--|-2---2---2--2-2----2--|
|---2--2--2---2-2----2--|-0---0---0--0-0----0--|
|---3--3--3---3-3----3--|----------------------|


  ~~
  H.          E   +E    Q.     E a E E   E E    W
|---------------------|----------------------|-------||
|---------------------|----------------------|-------||
|---------------------|----------------------|-------||
|-2-------------------|--------------2-------|-------||
|-------------2b3r(2)-|-0------0-2s4-----4s2-|--0----||
|---------------------|----------------------|-------||
|
| W                     Q    H         a Q      W
|---------------------|----------------------|-------||
|---------------------|----------------------|-------||
|---------------------|------2---------------|-------||
|---------------------|------2---------2h4---|--2----||
|-2-------------------|-0--------------------|--0----||
|-0-------------------|----------------------|-------||
|
| E  E Q  E E E    E    E  E Q     E E   E E    W
|-2--2-2--2-2-2----2--|-3--3-3-----3-3---3---|-^3----||
|-3--3-3--3-3-3----3--|-3--3-3-----3-3---3---|-^3----||
|-2--2-2--2-2-2----2--|-0--0-0-----0-0---0---|-^0----||
|-0--0-0--0-0-0----0--|-0--0-0-----0-0---0---|-^0----||
|---------------------|-2--2-2-----2-2---2---|-^2----||
|---------------------|-3--3-3-----3-3---3-3-|-------||


 2nd Verse
  Gtr I
  E E E E E E E E   E E E E E E E E   E E E E E E E E   E E E E E E E E
|-----------------|-----------------|-----------------|------------------|
|-------0-------0-|-------3-------3-|-------1-------1-|-------1-------1--|
|-----0-------0---|-----4-------4---|-----2-------2---|-----2-------2----|
|---0-------0-----|---3-------3-----|---2-------2-----|---2-------2------|
|-----------------|-----------------|-0-------0-------|-0-------0--------|
|-3-------3-------|-4-------4-------|-----------------|------------------|


  E E E E E E E E   E E E E E E E E   E E E E E E E E   E E E E E Q  E
|-------2-------2-|-------2-------2-|-----------3-----|-----------3-----|
|-----3-------3---|-----3-------3---|-------0---------|-------0---------|
|---2-------2-----|---2-------2-----|-----0---------0-|-----0-----------|
|-0-------0-------|-0-------0-------|---0---------0---|---0----------0--|
|-----------------|-----------------|-----------------|-----------------|
|-----------------|-----------------|-3-------3-------|-3-------3-------|


  Gtr II
   <                   <
   H.           Q      H.           Q
|-------------------|-------------------|
|-10----------------|-11----------------|
|-------------------|-------------------|
|-------------------|-------------------|
|-------------------|-------------------|
|-------------------|-------------------|
|
| Gtr I
|  E  E E E E E E E    E  E E E E E E E
|-------------------|-------------------|
|---------0---------|---------3-------3-|
|-------0-------0---|-------4-------4---|
|-----0-------0---0-|-----3-------3-----|
|-------------------|-------------------|
|--3--------3-------|--4--------4-------|


   <
   H.           Q    E  E  E E  E E  Q
|------------------|---10\---9\---7\-----|
|-12---------------|---------------------|
|------------------|---10\---9\---7\-----|
|------------------|---------------------|
|------------------|---------------------|
|------------------|---------------------|
|
|  E  E E E E E Q    E  E  E E  E E  Q
|------------------|---------------------|
|---------1--------|---------4-----------|
|-------2-------2--|-------5---------5---|
|-----2-------2----|----5---------5------|
|--0--------0------|-3----------3--------|
|------------------|---------------------|


  <
  H.           Q     H       E E E S S
|------------------|-------------------|
|-9----------------|-------------------|
|------------------|-------------------|
|-9----------------|-------------------|
|------------------|-------------------|
|-0----------------|---------0-0-0-0-0-|
|
| E  E E E E E E E   E E E E E E E E
|--------2-----0---|---------2-2-2-2---|
|------3---------3-|---3-3-3-3-3-3-3---|
|----2-------2-----|---2-2-2-2-2-2-2---|
|-0--------0-------|-0-0-0-0-0-0-0-0---|
|------------------|-------------------|
|------------------|-------------------|


                            D.S. al Coda
  +W                  +E  E E E E E E E
|-------------------|----------------------||
|-------------------|----------------------||
|-------------------|----------------------||
|-------------------|----------------------||
|-------------------|----------------------||
|-(0)---------------|-(0)-0-0-0-2-2-4-4----||
|
|  E  E E E E E E E    E  E E E E E E S S
|--2--2-2-2-2-2-2-2-|--2--2-2-2-2-2-2-3-3--||
|--3--3-3-3-3-3-3-3-|--3--3-3-3-3-3-3-3-3--||
|--2--2-2-2-2-2-2-2-|--2--2-2-2-2-2-2-0-0--||
|--0--0-0-0-0-0-0-0-|--0--0-0-0-0-0-0-0-0--||
|-------------------|-----------------2-2--||
|-------------------|-----------------3-3--||


 Coda
  &
  Gtr III
  E E   E E E   E E   E   E   E E   E E    a +S  S E E
|-------5-------5-----5-|-----5-----5------------------------||
|-------5-5-----5-----5-|-----5-----5------------------------||
|---7b9-----7b9---7b9---|-7b9---7b9---7b9==7r(7)p5-7-5b5.5---||
|-----------------------|------------------------------------||
|-----------------------|------------------------------------||
|-----------------------|------------------------------------||
|
| Gtr II
| Q     Q   E   E E   E   E   E E   E E       E    E E
|-----------------------|------------------------------------||
|-----------------------|------------------------------------||
|-------2-------2-----2-|------------------------------------||
|-------2---------------|-----2------------------------------||
|-0---------0-----0-----|-0----------------------------------||
|-----------------------|-------0---0-2-------2----4-4-------||
|
| Gtr I
| Q     Q   Q     E   E   E   E E   E E       E    E S     S
|-3-----3---3-----3---3-|-3---3-3---3-3-------3----3-3-----3-||
|-3-----3---3-----3---3-|-3---3-3---3-3-------3----3-3-----3-||
|-0-----0---0-----0---0-|-0---0-0---0-0-------0----0-0-----0-||
|-0-----0---0-----0---0-|-0---0-0---0-0-------0----0-0-----0-||
|-2-----2---2-----2---2-|-2---2-2---2-2-------2----2-2-----2-||
|-3-----3---3-----3---3-|-3---3-3---3-3-------3----3-3-----3-||


 3rd Chorus/Begin Fade
  ~~~~~~~~~~~~
  H      +Q     +Q        E  e q       S   +S  E   E E
|----------------------|---------------------------------|
|----------------------|-------5-------5-----------------|
|----------------------|-------4b6-----4b6r(4)p2-----2---|
|-7-----([7])---(7)\---|---------------------------4-----|
|----------------------|-----0---------------------------|
|----------------------|---------------------------------|
|
| Q  Q    E   E  E   E   +Q.       E a E       E a E E
|----------------------|---------------------------------|
|----------------------|---------------------------------|
|----2--------2------2-|-(2)-------------------2---------|
|-2--2-----------------|-----------------------2---------|
|-0-------0------0-----|-----------0-2s4---------4s2-0---|
|----------------------|---------------------------------|
|
| Q  Q    E   E  Q        E  E Q       E       E   E E
|-3--3----3---3--3-----|--3--3-3-------3-------3---3-3---|
|-3--3----3---3--3-----|--3--3-3-------3-------3---3-3---|
|-0--0----0---0--0-----|--0--0-0-------0-------0---0-0---|
|-0--0----0---0--0-----|--0--0-0-------0-------0---0-0---|
|-2--2----2---2--2-----|--2--2-2-------2-------2---2-2---|
|-3--3----3---3--3-----|--3--3-3-------3-------3---3-3---|


   W                +H.          Q     W
|-----------------|------------------|---------------|
|-----------------|------------------|---------------|
|-----------------|------------------|---------------|
|-----------------|------------------|---------------|
|-[0]-------------|-(0)--------------|---------------|
|-----------------|------------------|---------------|
|
|                                                  ~~~
| +Q   Q  E E E E    Q    Q  E Q   E   Q  q  E E E E
|-----------------|------------------|---------------|
|-----------------|------------------|---------------|
|-----------2---2-|------------2-----|----4--2-4---4-|
|------2----------|-------2----------|----4--2-4---4-|
|-(0)-----0---0---|--0-------------0-|-2-------------|
|-----------------|------------------|---------------|
|
|  Q   Q  E E Q      E  E Q  E E E E   Q  Q  E E E E
|--3---3--3-3-3---|--3--3-3--3-3-3-3-|-0--0--0-0-0-0-|
|--3---3--3-3-3---|--3--3-3--3-3-3-3-|-1--1--1-1-1-1-|
|--0---0--0-0-0---|--0--0-0--0-0-0-0-|-2--2--2-2-2-2-|
|--0---0--0-0-0---|--0--0-0--0-0-0-0-|-2--2--2-2-2-2-|
|--2---2--2-2-2---|--2--2-2--2-2-2-2-|-0--0--0-0-0-0-|
|--3---3--3-3-3---|--3--3-3--3-3-3-3-|---------------|


   W                       W                   W
|------------------------|------------------|-------------------|
|------------------------|------------------|-------------------|
|------------------------|------------------|-------------------|
|------------------------|------------------|-------------------|
|------------------------|------------------|-------------------|
|------------------------|------------------|-------------------|
|
|~~~~~~~~~~~~~~
| +H       +E  E E   +E    H      +E  E E E   +E  E E E E E E E
|------------------------|------------------|-------------------|
|------------------------|------------------|-------------------|
|-(4)------(4)-----------|------------------|-------------------|
|-(4)------(4)-4---------|----------------2-|-(2)-2-------------|
|--------------0---------|------------2h4-2-|-(2)---------------|
|----------------2b3r(2)-|-0------(0)-------|-------0-0-2-2-4-4-|
|
| +E  E Q   E  E E    E    Q  E E  E  E E E   +E  E E E E E E E
|-(0)-0-0---0--0-0----0--|-2--2-2--2--2-2-2-|-(2)-2-2-2-2-2-2-2-|
|-(1)-1-1---1--1-1----1--|-3--3-3--3--3-3-3-|-(3)-3-3-3-3-3-3-3-|
|-(2)-2-2---2--2-2----2--|-2--2-2--2--2-2-2-|-(2)-2-2-2-2-2-2-2-|
|-(2)-2-2---2--2-2----2--|-0--0-0--0--0-0-0-|-(0)-0-0-0-0-0-0-0-|
|-(0)-0-0---0--0-0----0--|------------------|-------------------|
|------------------------|------------------|-------------------|


   W                   +Q      E E     +E   E    E  E
|--------------------|--------------------------------|
|--------------------|-----------5--------------------|
|--2-----------------|-(2)-------4b6r==(4)p=2-------2-|
|--2-----------------|-(2)-----------------------4--2-|
|--------------------|--------------------------------|
|--------------------|--------------------------------|
|
|  Q   Q   E  E  E E   +Q.       E   a  E   E a  E  E
|--------------------|--------------------------------|
|--------------------|--------------------------------|
|------2------2----2-|-(2)------------------2---------|
|--2---2-------------|----------------------2---------|
|--0-------0-----0---|-----------0---2s=4-----4s=2--0-|
|--------------------|--------------------------------|
|
|  Q   Q   E  E  Q      E   E  Q        E   E    E  E
|-^3--^3--^3-^3-^3---|-^3--^3-^3-------^3--^3---^3-^3-|
|-^3--^3--^3-^3-^3---|-^3--^3-^3-------^3--^3---^3-^3-|
|-^0--^0--^0-^0-^0---|-^0--^0-^0-------^0--^0---^0-^0-|
|-^0--^0--^0-^0-^0---|-^0--^0-^0-------^0--^0---^0-^0-|
|-^2--^2--^2-^2-^2---|-^2--^2-^2-------^2--^2---^2-^2-|
|-^3--^3--^3-^3-^3---|-^3--^3-^3-------^3--^3---^3-^3-|


  +W                      +H     H      W                     W
|-----------------------|-------------|---------------------|-----------------|
|-----------------------|-------------|---------------------|-----------------|
|-(2)-------------------|-(2)---------|---------------------|-----------------|
|-(2)-------------------|-(2)---------|---------------------|-----------------|
|-----------------------|-------------|---------------------|-----------------|
|-----------------------|-------------|---------------------|-----------------|
|
| +Q      Q   E  E  Q      W            H     +E  e E   +E    H.         Q
|-----------------------|-------------|---------------------|-----------------|
|-----------------------|-------------|---------------------|-----------------|
|----------------2------|--2----------|---------------------|-----------------|
|---------2-------------|--2----------|-4-----(4)-----------|-----------------|
|-(0)---------0-----0---|--0----------|-2-----(2)-2---------|-2---------------|
|-----------------------|-------------|-------------2b3r(2)-|-0---------------|
|
|  E   E  Q   E  E  E E    W            Q  Q   E  E E    E    Q   Q  E E Q
|-^3--^3-^3--^3-^3-^3---|-^3----------|-0--0---0--0-0----0--|-2---2--2-2-2----|
|-^3--^3-^3--^3-^3-^3---|-^3----------|-1--1---1--1-1----1--|-3---3--3-3-3----|
|-^0--^0-^0--^0-^0-^0---|-^0----------|-2--2---2--2-2----2--|-2---2--2-2-2----|
|-^0--^0-^0--^0-^0-^0---|-^0----------|-2--2---2--2-2----2--|-0---0--0-0-0----|
|-^2--^2-^2--^2-^2-^2---|-^2----------|-0--0---0--0-0----0--|-----------------|
|-^3--^3-^3--^3-^3-^3-3-|-------------|---------------------|-----------------|


  E    E E E    E E E    E   E    E E    E E    E E  E
|--------------------------|-----------------------------||
|-5----5-5-5----5-5-5----5-|-5----5-5----5-5----5--------||
|-4b6==4-4-4b6==4-4-4b6==4-|-4b6==4-4b6==4-4b6==4-4r-----||
|--------------------------|-------------------------4---||
|--------------------------|-----------------------------||
|--------------------------|-----------------------------||
|
| Q      Q      E E E    E   E    E E    E E    E E  E
|--------------------------|-----------------------------||
|--------------------------|-----------------------------||
|--------2--------2------2-|-----------------------------||
|--------2-----------------|------2----------------------||
|-0-------------0---0------|-0---------------------------||
|--------------------------|--------0----0-2----2-4--4---||
|
| Q      Q      Q   E    E   E    E E    E E    E E  S S
|-3------3------3---3----3-|-3----3-3----3-3----3-3--3-3-||
|-3------3------3---3----3-|-3----3-3----3-3----3-3--3-3-||
|-0------0------0---0----0-|-0----0-0----0-0----0-0--0-0-||
|-0------0------0---0----0-|-0----0-0----0-0----0-0--0-0-||
|-2------2------2---2----2-|-2----2-2----2-2----2-2--2-2-||
|-3------3------3---3----3-|-3----3-3----3-3----3-3--3-3-||


 4th Chorus
          ~~~~~~~~~~~~~~~~
  H      +H           +Q    E E   E E   E   E
|-------------------|------/5-5---5-5-------5-|
|-------------------|------/5-5---5-5-------5-|
|-2-----([2])-------|-(2)---------------7b9---|
|-------------------|-------------------------|
|-------------------|-------------------------|
|-------------------|-------------------------|
|
| Q  Q    E   E E E   +Q.     E a E E a E   E
|-------------------|-------------------------|
|-------------------|-------------------------|
|----2--------2---2-|-(2)-----------2---------|
|-2--2--------------|---------------2---------|
|-0-------0-----0---|---------0-2s4---4s2---0-|
|-------------------|-------------------------|
|
| Q  Q    E   E E E   +Q.     E a E E a E   E
|-------------------|-------------------------|
|-------------------|-------------------------|
|----2--------2---2-|-(2)-----------2---------|
|-2--2--------------|---------------2---------|
|-0-------0-----0---|---------0-2s4---4s2---0-|
|-------------------|-------------------------|


  +W                +Q    Q.    E E E   H.         Q      W
|-(5)-------------|-(5)---------------|----------------|------------------------|
|-(5)-------------|-(5)---------------|----------------|------------------------|
|-----------------|-------------------|----------------|------------------------|
|-----------------|-------------------|----------------|------------------------|
|-----------------|-------------0-2h4-|-2--------------|------------------------|
|-----------------|-------------------|----------------|------------------------|
|
|                                                    ~~~~~~~~~~~~~~~~~
| +Q   Q  E E E E    Q    Q   E Q   E   Q   q  E E E E   +H       +E  E E   +E
|-----------------|-------------------|----------------|------------------------|
|-----------------|-------------------|----------------|------------------------|
|-----------2---2-|-------------2-----|-----4--2-4---4-|-(4)------(4)-----------|
|------2----------|-------2-----------|-----4--2-4---4-|-(4)------(4)-4---------|
|-(0)-----0---0---|--0--------------0-|-2--------------|--------------0---------|
|-----------------|-------------------|----------------|----------------2b3r(2)-|
|
|  Q   Q  E E Q      E  E Q   E E E E   Q   Q  E E E E   +E  E Q   E  E E    E
|--3---3--3-3-3---|--3--3-3---3-3-3-3-|-0---0--0-0-0-0-|-(0)-0-0---0--0-0----0--|
|--3---3--3-3-3---|--3--3-3---3-3-3-3-|-1---1--1-1-1-1-|-(1)-1-1---1--1-1----1--|
|--0---0--0-0-0---|--0--0-0---0-0-0-0-|-2---2--2-2-2-2-|-(2)-2-2---2--2-2----2--|
|--0---0--0-0-0---|--0--0-0---0-0-0-0-|-2---2--2-2-2-2-|-(2)-2-2---2--2-2----2--|
|--2---2--2-2-2---|--2--2-2---2-2-2-2-|-0---0--0-0-0-0-|-(0)-0-0---0--0-0----0--|
|--3---3--3-3-3---|--3--3-3---3-3-3-3-|----------------|------------------------|


  W                   W                   W
|------------------|-------------------|---------------------|
|------------------|-------------------|---------------------|
|------------------|-------------------|---------------------|
|------------------|-------------------|---------------------|

|------------------|-------------------|---------------------|
|------------------|-------------------|---------------------|
|
| H      +E  E E E   +E  E E E E E E E    Q   Q   E  E  E E
|------------------|-------------------|---------------------|
|------------------|-------------------|---------------------|
|------------------|-------------------|------2------2----2--|
|----------------2-|-(2)-2-------------|--2---2--------------|
|------------2h4-2-|-(2)---------------|--0-------0-----0----|
|-0------(0)-------|-------0-0-2-2-4-4-|---------------------|
|
| Q  E E  E  E E E   +E  E E E E E E E    Q   Q   E  E  Q
|-2--2-2--2--2-2-2-|-(2)-2-2-2-2-2-2-2-|-^3--^3--^3-^3-^3----|
|-3--3-3--3--3-3-3-|-(3)-3-3-3-3-3-3-3-|-^3--^3--^3-^3-^3----|
|-2--2-2--2--2-2-2-|-(2)-2-2-2-2-2-2-2-|-^0--^0--^0-^0-^0----|
|-0--0-0--0--0-0-0-|-(0)-0-0-0-0-0-0-0-|-^0--^0--^0-^0-^0----|
|------------------|-------------------|-^2--^2--^2-^2-^2----|
|------------------|-------------------|-^3--^3--^3-^3-^3----|


                        |-----3-----|
   Q       Q       +E   S      +S   S    E  E
|--------<12>-----(12)------------------------|
|----------------------12pb13r(12)p10---12----|
|------------------------------------------11-|
|---------------------------------------------|
|---------------------------------------------|
|---------------------------------------------|
|
| +Q.         E a   E   E             a  E  E
|---------------------------------------------|
|---------------------------------------------|
|-(2)-------------------2---------------------|
|-----------------------2---------------------|
|-------------0-2s==4-----------------4s=2--0-|
|---------------------------------------------|
|
|  E   E   Q        E   E                E  E
|-^3--^3-^-3------^-3--^3---------------^3-^3-|
|-^3--^3-^-3------^-3--^3---------------^3-^3-|
|-^0--^0-^-0------^-0--^0---------------^0-^0-|
|-^0--^0-^-0------^-0--^0---------------^0-^0-|
|-^2--^2-^-2------^-2--^2---------------^2-^2-|
|-^3--^3-^-3------^-3--^3---------------^3-^3-|


                ~~~~~~~~~~~~~~~~~~~~~~~~~~~~~~
   H           +H              +H.       +Q
|---------------------------|-------------------|
|-10---------([10])---------|-(10)------(10)\---|
|---------------------------|-------------------|
|---------------------------|-------------------|
|---------------------------|-------------------|
|---------------------------|-------------------|
|
| +Q      Q     E    E  Q       W
|---------------------------|-------------------|
|---------------------------|-------------------|
|--------------------2------|---2---------------|
|---------2-----------------|---2---------------|
|-(0)-----------0-------0---|---0---------------|
|---------------------------|-------------------|
|
|  E   E  Q     E    E  E E     W
|-^3--^3-^3--^--3---^3-^3---|-^-3---------------|
|-^3--^3-^3--^--3---^3-^3---|-^-3---------------|
|-^0--^0-^0--^--0---^0-^0---|-^-0---------------|
|-^0--^0-^0--^--0---^0-^0---|-^-0---------------|
|-^2--^2-^2--^--2---^2-^2---|-^-2---------------|
|-^3--^3-^3--^--3---^3-^3-3-|-------------------|


  Gtr IV
                                               ~~~
  H      a  E   E  E    E     E   E     +E  E +H
|-------12h14p=12-10-------|---------------------------|
|----------------------10--|-12------------------------|
|--------------------------|-----11b13r(11)-9-(9)------|
|--------------------------|---------------------------|
|--------------------------|---------------------------|
|--------------------------|---------------------------|
|
| H        +E   e  E   +E     H.                    Q
|--------------------------|---------------------------|
|--------------------------|---------------------------|
|--------------------------|---------------------------|
|-4--------(4)-------------|---------------------------|
|-2--------(2)--2----------|--2------------------------|
|------------------2b3r(2)-|--0------------------------|
|
| Q  Q      E   E  E    E     Q          Q     E  E Q
|-0--0------0---0--0----0--|--2----------2-----2--2-2--|
|-1--1------1---1--1----1--|--3----------3-----3--3-3--|
|-2--2------2---2--2----2--|--2----------2-----2--2-2--|
|-2--2------2---2--2----2--|--0----------0-----0--0-0--|
|-0--0------0---0--0----0--|---------------------------|
|--------------------------|---------------------------|


  E  E     E     +E   E  E  Q      E     +S   S  E  E  +Q     E  E
|---17----17--------------------|------------------------------------||
|---17----17--------------------|------------------------------------||
|---16b18-16b18r(16)p14----14---|------------------------------------||
|-----------------------16-14---|------------------------------------||
|-------------------------------|-14b15r(14)p12-14-12-(12)-----------||
|-------------------------------|----------------------------14-12---||
|
| Q        Q          E  E  E E    E      E      E  E   E  E  E  E
|-------------------------------|------------------------------------||
|-------------------------------|------------------------------------||
|----------2-------------2----2-|------------------------------------||
|----------2--------------------|---------2--------------------------||
|-0-------------------0-----0---|--0---------------------------------||
|-------------------------------|----------------0--0---2--2--4--4---||
|
| Q        Q          Q     E E    E      E      E  E   E  E  E  S S
|-3--------3----------3-----3-3-|--3------3------3--3---3--3--3--3-3-||
|-3--------3----------3-----3-3-|--3------3------3--3---3--3--3--3-3-||
|-0--------0----------0-----0-0-|--0------0------0--0---0--0--0--0-0-||
|-0--------0----------0-----0-0-|--0------0------0--0---0--0--0--0-0-||
|-2--------2----------2-----2-2-|--2------2------2--2---2--2--2--2-2-||
|-3--------3----------3-----3-3-|--3------3------3--3---3--3--3--3-3-||


 5th Chorus
  Gtr V
  W                S      +S   E  E      +E     +S   +S   E    E     +E
|---------------|-12-------------12-----(12)---(12)-----------12---------|
|---------------|-12pb14r(12)p10-12b14==(12)---(12)r(12)p10---12b14-(12)-|
|---------------|--------------------------------------------------------|
|---------------|--------------------------------------------------------|
|---------------|--------------------------------------------------------|
|---------------|--------------------------------------------------------|
|
| Q  Q  E E E E   +Q.                     E  a   E        E a  E      E
|---------------|--------------------------------------------------------|
|---------------|--------------------------------------------------------|
|----2----2---2-|-(2)-------------------------------------2--------------|
|-2--2----------|-----------------------------------------2--------------|
|-0-----0---0---|-------------------------0--2s==4----------4s=2------0--|
|---------------|--------------------------------------------------------|
|
| Q  Q  E E Q      E           E  Q              E        E    E      E
|-3--3--3-3-3---|--3-----------3--3--------------3--------3----3------3--|
|-3--3--3-3-3---|--3-----------3--3--------------3--------3----3------3--|
|-0--0--0-0-0---|--0-----------0--0--------------0--------0----0------0--|
|-0--0--0-0-0---|--0-----------0--0--------------0--------0----0------0--|
|-2--2--2-2-2---|--2-----------2--2--------------2--------2----2------2--|
|-3--3--3-3-3---|--3-----------3--3--------------3--------3----3------3--|


   +H.         Q     E  E  E  E       +S   +S   E  E  E
|------------------|---14-------------------------------|
|-(12)-------------|------17----------------------------|
|------------------|---------16pb18==(16)r(16)p14-------|
|------------------|------------------------------16p14-|
|------------------|------------------------------------|
|------------------|------------------------------------|
|
|  +Q   Q  E E E E   Q     Q           E        Q     E
|------------------|------------------------------------|
|------------------|------------------------------------|
|------------2---2-|----------------------------2-------|
|-------2----------|-------2----------------------------|
|--(0)-----0---0---|-0--------------------------------0-|
|------------------|------------------------------------|
|
|   Q   Q  E E Q     E  E  Q           E        E  E  E
|---3---3--3-3-3---|-3--3--3-----------3--------3--3--3-|
|---3---3--3-3-3---|-3--3--3-----------3--------3--3--3-|
|---0---0--0-0-0---|-0--0--0-----------0--------0--0--0-|
|---0---0--0-0-0---|-0--0--0-----------0--------0--0--0-|
|---2---2--2-2-2---|-2--2--2-----------2--------2--2--2-|
|---3---3--3-3-3---|-3--3--3-----------3--------3--3--3-|


   Q      +Q    +Q    Q      W
|-------------------------|------------------------|
|-------------------------|------------------------|
|-14b16--(14)--(14)-------|------------------------|
|-------------------------|------------------------|
|-------------------------|------------------------|
|-------------------------|------------------------|
|
|                       ~~~~~~~~~~~~~~~~~
|  Q       q     E  E E E   +H       +E  E E   +E
|-------------------------|------------------------|
|-------------------------|------------------------|
|----------4-----2--4---4-|-(4)------(4)-----------|
|----------4-----2--4---4-|-(4)------(4)-4---------|
|--2----------------------|--------------0---------|
|-------------------------|----------------2b3r(2)-|
|
|  Q       Q     E  E E E   +E  E Q   E  E E    E
|--0-------0-----0--0-0-0-|-(0)-0-0---0--0-0----0--|
|--1-------1-----1--1-1-1-|-(1)-1-1---1--1-1----1--|
|--2-------2-----2--2-2-2-|-(2)-2-2---2--2-2----2--|
|--2-------2-----2--2-2-2-|-(2)-2-2---2--2-2----2--|
|--0-------0-----0--0-0-0-|-(0)-0-0---0--0-0----0--|
|-------------------------|------------------------|


   H       H           +H.           Q
|-------------------|---------------------*|
|-------------------|---------------------*|
|-11s=====13--------|-(13)----------------*|
|-12s=====14--------|-(14)----------------*|
|-------------------|---------------------*|
|-------------------|---------------------*|
|
|  H      +E  E E E    +E  E E E E E E E
|-------------------|---------------------*|
|-------------------|---------------------*|
|-------------------|---------------------*|
|-----------------2-|--(2)-2--------------*|
|-------------2h4-2-|--(2)----------------*|
|--0------(0)-------|--------0-0-2-2-4-4--*|
|
|  Q  E E  E  E E E    +E  E E E E E E E
|--2--2-2--2--2-2-2-|--(2)-2-2-2-2-2-2-2--*|
|--3--3-3--3--3-3-3-|--(3)-3-3-3-3-3-3-3--*|
|--2--2-2--2--2-2-2-|--(2)-2-2-2-2-2-2-2--*|
|--0--0-0--0--0-0-0-|--(0)-0-0-0-0-0-0-0--*|
|-------------------|---------------------*|
|-------------------|---------------------*|



Duration Legend
---------------
W - whole; H - half; Q - quarter; E - 8th; S - 16th; T - 32nd; X - 64th; a - acciaccatura
+ - note tied to previous; . - note dotted; .. - note double dotted
Uncapitalized letters represent notes that are staccato (1/2 duration)
Irregular groupings are notated above the duration line
Duration letters will always appear directly above the note/fret number it represents the
duration for.  Duration letters with no fret number below them represent rests.  Multi-
bar rests are notated in the form Wxn, where n is the number of bars to rest for.  Low
melody durations appear below the staff

Tablature Legend
----------------
 h   - hammer-on
 p   - pull-off
 b   - bend
 pb  - pre-bend
 r   - bend release (if no number after the r, then release immediately)
 /\  - slide into or out of (from/to "nowhere")
 s   - legato slide
 S   - shift slide
 - natural harmonic
[n]  - artificial harmonic
n(n) - tapped harmonic
 ~   - vibrato
 tr  - trill
 T   - tap
 TP  - trem. picking
 PM  - palm muting
\n/  - tremolo bar dip; n = amount to dip
 \n  - tremolo bar down
 n/  - tremolo bar up
/n\  - tremolo bar inverted dip
 =   - hold bend; also acts as connecting device for hammers/pulls
 <> - volume swell (louder/softer)
 x   - on rhythm slash represents muted slash
 o   - on rhythm slash represents single note slash

Misc Legend
-----------
 |  - bar
||  - double bar
||o - repeat start
o|| - repeat end
*|  - double bar (ending)
 :  - bar (freetime)
 $  - Segno
 &  - Coda
Tempo markers -  = BPM(8/16=s8/s16), where s8 = swing 8ths, s16 = swing 16ths





Comments


Popular Garth Brooks tabs & chords
Burning The Roadhouse Down Chords
Fishin' In The Dark 1 Chords
Papa Loved Mama Chords
Somewhere Other Than The Night Chords
I've Got A Good Thing Going Tabs
Ive Got Friends In Low Places Tabs
That Summer Tabs
Which One Of Them Tabs
Shes Gonna Make It Ukulele
The River Ukulele


Song lyrics



↑ Back to top | Tablatures and chords are parodies/interpretations of the original songs. You may use it for private study, scholarship, research or language learning purposes only
© 2014 AZChords.com Contact us | Privacy policy | DMCA | Add/correct tabs | Request tabs | Top 50 tabs