» » »

Garth Brooks, Friends In Low Places Tabs (ver.4)

Artists:  A B C D E F G H I J K L M N O P Q R S T U V W X Y Z # 

Friends In Low Places Tabs (ver.4)

Garth Brooks Tabs
Rating:
0/5 (0 votes)
Friends In Low Places lessons Tabs too difficult? Try these video lessons and learn fast
                capo 1st fret
---------------3---0-2-------|
-----0----3---1---3----------|
----0----4---0---2-----------|
---0----3---2---0------------|
-----------0-----------------|
--3---4----------------------|

----4----4----------3--------|
---0----3----1---0-1-1-------|
--0----4----0-0-------2------|
-0----3----2---2-------2-----|
----------0-----0------------|
3----4-----------------------|

----0-2-0----2------3--------|
---3-----3--1-1--0-1-1-------|
--2--------2---2------2------|
-0--------0-----0------2-----|
-----------------------------|
-----------------------------|

----0-2-0----2--------3------3---|
---3-----3--1-1-----0--0----0----|
--2--------2---2---0-0--0--0-----|
-0--------0-----0-0-------0------|
---------------------------------|
-----------------3-------3-------|

-----3------4----0----3------------|
----0-0---3-----1-1-----4-3--------|
---0---0-4-4---0---1--------5------|
--0-----3-----2--------5-5-5-------|
-------------0-------3-------------|
-3---------------------------------|

-2-2--2-2--2-2--2-2---2-2--2-2----------|
-3-3--3-3--3-3--3-3---3-3--3-3----------|
-2-2--2-2--2-2--2-2-0-2-2--2-2----------|
0--------0----------0---------0-0-------|
----0---------0----------0--------------|
---------------------------------0-2----|leads into chorus
chorus
-3-3---3-3--0-0--0-0--2-2--2-2-----------|
-0-0---0-0--1-1--1-1--3-3--2-2-----------|
-0-0---0-0--2-2--2-2--2-2--3-3-----------|
-0-0-0------2-2--2-2-0--------0-0--------|
----------0--------------0---------------|
-------------0-------------------0-2-----|
            
Submit corrections

comments powered by Disqus
↑ Back to top | Garth Brooks Tabs for Friends In Low Places. Lyrics for acoustic guitar and electric guitar. Tablatures and chords are parodies/interpretations of the original songs. You may use it for private study, scholarship, research or language learning purposes only