» » »

Garry Schyman, Praan Tabs (ver.1)

Artists:  A B C D E F G H I J K L M N O P Q R S T U V W X Y Z # 

Praan Tabs (ver.1)

Garry Schyman Tabs
 Rating:
4/5 (8 votes)
Praan lessons Tabs too difficult? Try these video lessons and learn fast
                -------------------------------------------------------------------------------
			     Garry Schyman - Praan (Acoustic)
-------------------------------------------------------------------------------


Tuning: Standard
	Capo 3rd
	
Intro
	
  Am		   F7M		  C		  C7M9
e|---------------------------------------------------------------------------|
B|1-------1-------1-------1-------1-------1-------1-------0------------------|
G|----2-------2-------2-------2-------0-------0-------0-------0--------------|
D|2-2---2---2---2-3-3---3---3---3-2-2---2---2---2----------------------------|
A|0---------------3---------------3---------------2-2---2---2---2------------|
E|------------------------------------------------3--------------------------|

Prechorus (Palm-Muted)
------------------------

  Am	F7M    C     C7M9
  Bhulbona ar shohojete 
  
  Am    F7M    C     C7M9
  Shei praan e mon uthbe mete

  Am    F7M    C     C7M9
  Mrittu majhe dhaka ache

  Am    F7M    C     C7M9
  je ontohin praan
  
  
 Chorus (Unmuted)
 -------------------------

  C                 F      
  Bojre tomar baje bashi
  
                 C
  She ki shohoj gaan
  
               G
  Shei shurete jagbo ami  

 --------------------------

  Shei jhor jeno shoi anonde
  Chittobinar taare
  Shotto-shundu dosh digonto
  Nachao je jhonkare!
  
  Bojre tomar baje bashi
  She ki shohoj gaan
  Shei shurete jagbo ami

  
  Repeat chord patterns until the end. There's some percussive acoustic parts but 
  I can't really tab them out.
  
  English lyrics - 
  ----------------------------
  
  "Stream of Life"
  
  The same stream of life that runs through my veins night and day
  runs through the world and dances in rhythmic measures.
  
  It is the same life that shoots in joy through the dust of the earth
  in numberless blades of grass
  and breaks into tumultuous waves of leaves and flowers.
  
  It is the same life that is rocked in the ocean-cradle of birth
  and of death, in ebb and in flow.
  
  I feel my limbs are made glorious by the touch of this world of life.
  And my pride is from the life-throb of ages dancing in my blood this  moment. 
            
Submit corrections

comments powered by Disqus
↑ Back to top | Garry Schyman Tabs for Praan. Lyrics for acoustic guitar and electric guitar. Tablatures and chords are parodies/interpretations of the original songs. You may use it for private study, scholarship, research or language learning purposes only