>
 >
How She Sees The World

How She Sees The World Guitar Tabs

Garry Schyman - How She Sees The World chords, tabs, tablatures, lyrics

Guitar lessons | Add/correct | Request | Top 50 tabs Artists:  A B C D E F G H I J K L M N O P Q R S T U V W X Y Z 0-9

How She Sees The World Guitar Tabs – Garry Schyman

CD, Sheet music, Poster

Do you like How She Sees The World? Share with your friends now
Tabs

For two guitars, one rythym guitar (Piano Left Hand) and one lead
guitar (Piano Right Hand), both with standard tuning

Piano Left Hand

e|----------------|----------------|----------------|----------------|
B|----------------|-4------3-------|----------------|-4--------------|
G|------------5---|----------------|-------------5--|----------------|
D|-------5--------|----------------|-------5--------|--------6-------|
A|-3--------------|----------------|-3--------------|----------------|
E|----------------|----------------|----------------|----------------|

e|----------------|--------6-------|----------------|----------------|
B|----------------|-4--------------|----------------|----------------|
G|------------5---|----------------|-------------5--|-4--------------|
D|-------5--------|----------------|-------5--------|-------6--------|
A|-3--------------|----------------|-3--------------|-------------6--|
E|----------------|----------------|----------------|----------------|

e|----------------|----------------|----------------|----------------|
B|----------------|-4------3-------|----------------|-4--------------|
G|------------5---|----------------|-------------5--|----------------|
D|-------5--------|----------------|-------5--------|--------6-------|
A|-3--------------|----------------|-3--------------|----------------|
E|----------------|----------------|----------------|----------------|

e|----------------|-6-----7--------|----------------|----------------|
B|-------------9--|-------------8--|----------------|----------------|
G|-------8--------|----------------|----------------|-3-----4--------|
D|-6--------------|----------------|-------------6--|----------------|
A|----------------|----------------|-------6--------|----------------|
E|----------------|----------------|-4--------------|----------------|

e|----------------|----------------|----------------|----------------|
B|----------------|----------------|----------------|----------------|
G|------------5---|-------5--------|-------------5--|----------------|
D|-------5--------|-5--------------|-------5--------|-------5--------|
A|-3--------------|----------------|-3--------------|-------------3--|
E|----------------|----------------|----------------|----------------|

e|-------------8--|----------------|-------------8--|-------8--------|
B|-------5--------|-5-----5--------|-------5--------|-5-----------5--|
G|----------------|----------------|----------------|----------------|
D|-7--------------|----------------|-7--------------|----------------|
A|----------------|----------------|----------------|----------------|
E|----------------|----------------|----------------|----------------|

e|-------------7--|-------7--------|-------------7--|-------7--------|
B|-------4--------|-4--------------|-------4--------|-4--------------|
G|----------------|----------------|----------------|----------------|
D|-6--------------|----------------|-6--------------|----------------|
A|----------------|----------------|----------------|----------------|
E|----------------|----------------|----------------|----------------|

e|----------------|----------------|-0-----3-----7--|-8-----------7--|
B|----------------|-------0-----1--|----------------|----------------|
G|----------------|-0--------------|----------------|----------------|
D|-------------2--|----------------|----------------|----------------|
A|-------2--------|----------------|----------------|----------------|
E|-0--------------|----------------|----------------|----------------|

e|-(7)------------|
B|----------------|
G|----------------|
D|----------------|
A|----------------|
E|----------------|

e|----------------|----------------|----------------|----------------|
B|----------------|-4------3-------|----------------|-4--------------|
G|------------5---|----------------|-------------5--|----------------|
D|-------5--------|----------------|-------5--------|--------6-------|
A|-3--------------|----------------|-3--------------|----------------|
E|----------------|----------------|----------------|----------------|

e|----------------|-6--------------|----------------|----------------|
B|-------------9--|-------8--------|----------------|----------------|
G|-------8--------|----------------|----------------|-------7--------|
D|-6--------------|----------------|-------------6--|-8-----------9--|
A|----------------|----------------|-------6--------|----------------|
E|----------------|----------------|-4--------------|----------------|

e|----------------|----------------|----------------|----------------|
B|----------------|----------------|----------------|----------------|
G|------------5---|-------5--------|-------------5--|----------------|
D|-------5--------|-5--------------|-------5--------|-------5--------|
A|-3--------------|----------------|-3--------------|-------------3--|
E|----------------|----------------|----------------|----------------|

e|-------------8--|----------------|-------------8--|-------8--------|
B|-------5--------|-5-----5--------|-------5--------|-5-----------5--|
G|----------------|----------------|----------------|----------------|
D|-7--------------|----------------|-7--------------|----------------|
A|----------------|----------------|----------------|----------------|

e|-------------7--|----------------|-------------7--|-------7--------|
B|-------4--------|-4--------------|-------4--------|-4--------------|
G|----------------|----------------|----------------|----------------|
D|-6--------------|----------------|-6--------------|----------------|
A|----------------|----------------|----------------|----------------|
E|----------------|----------------|----------------|----------------|

e|----------------|----------------|-0-----3-----7--|-------8--------|
B|----------------|-------0-----1--|----------------|----------------|
G|----------------|-0--------------|----------------|----------------|
D|-------------2--|----------------|----------------|----------------|
A|-------2--------|----------------|----------------|----------------|
E|-0--------------|----------------|----------------|----------------|

e|------7---------|----------------|
B|----------------|----------------|
G|----------------|-5--------------|
D|----------------|----------------|
A|----------------|-3--------------|
E|----------------|----------------|

Piano Right Hand (enters in on 9th bar of piano right hand)
This has been dropped down two octaves, raise it if you like it that way,
but the highest note hit on the piano was the 36th fret on a guitar which
is ridiculously high

e|----------------|----------------|----------------|----------------|
B|-4--------------|-3--------------|----------------|-4--------------|
G|----------------|----------------|-5--------------|-------------5--|
D|----------------|----------------|----------------|----------------|
A|----------------|----------------|----------------|----------------|
E|----------------|----------------|----------------|----------------|

e|----------------|----------------|----------------|----------------|
B|----------------|----------------|----------------|----------------|
G|-4--------------|-3-----------4--|----------------|----------------|
D|---6------------|----------------|----------------|----------------|
A|----------------|----------------|-6--------------|----------------|
E|----------------|----------------|----------------|----------------|

e|----------------|----------------|----------------|-3-----4-----7--|
B|-4--------------|-3--------------|----------------|----------------|
G|----------------|----------------|-5--------------|----------------|
D|----------------|----------------|----------------|----------------|
A|----------------|----------------|----------------|----------------|
E|----------------|----------------|----------------|----------------|

e|-8--5-----------|-11---------12--|------------12--|------8-----10--|
B|----------------|----------------|----------------|----------------|
G|----------------|----------------|----------------|----------------|
D|----------------|----------------|----------------|----------------|
A|----------------|----------------|----------------|----------------|
E|----------------|----------------|----------------|----------------|

e|-8--7-----------|----------------|-------------6--|-------7--------|
B|----------------|----------------|----------------|----------------|
G|----------------|----------------|----------------|----------------|
D|----------------|----------------|----------------|----------------|
A|----------------|----------------|----------------|----------------|
E|----------------|----------------|----------------|----------------|

e|-7--3-----------|----------------|----------------|-3-----0--------|
B|----------------|----------------|----------------|----------------|
G|----------------|----------------|----------------|----------------|
D|----------------|----------------|----------------|----------------|
A|----------------|----------------|----------------|----------------|
E|----------------|----------------|----------------|----------------|

e|----------------|----------------|----------------|----------------|
B|----------------|-4--------------|-3--------------|-1--------------|
G|----------------|----------------|----------------|----------------|
D|----------------|----------------|----------------|----------------|
A|----------------|----------------|----------------|----------------|
E|----------------|----------------|----------------|----------------|

e|----------------|----------------|----------------|----------------|
B|-4--------------|----------------|-------------0--|----------------|
G|-------------5--|-4--------------|-3--------------|----------------|
D|----------------|----6-----------|----------------|-1--------------|
A|----------------|----------------|----------------|----------------|
E|----------------|----------------|----------------|----------------|

e|----------------|-3--------------|-4--------------|-2--------------|
B|-4--------------|----------------|----------------|----------------|
G|----------------|----------------|----------------|----------------|
D|----------------|----------------|----------------|----------------|
A|----------------|----------------|----------------|----------------|
E|----------------|----------------|----------------|----------------|

e|-3-----4-----7--|-8--5-----------|-11---------12--|----------------|
B|----------------|----------------|----------------|----------------|
G|----------------|----------------|----------------|----------------|
D|----------------|----------------|----------------|----------------|
A|----------------|----------------|----------------|----------------|
E|----------------|----------------|----------------|----------------|

e|----------------|-8--7-----------|-6-----------7--|----------------|
B|----------------|----------------|----------------|----------------|
G|----------------|----------------|----------------|----------------|
D|----------------|----------------|----------------|----------------|
A|----------------|----------------|----------------|----------------|
E|----------------|----------------|----------------|----------------|

e|-8--------------|-7--3-----------|----------------|----------------|
B|----------------|----------------|----------------|----------------|
G|----------------|----------------|----------------|----------------|
D|----------------|----------------|----------------|----------------|
A|----------------|----------------|----------------|----------------|
E|----------------|----------------|----------------|----------------|

e|-------3-----0--|
B|----------------|
G|----------------|
D|----------------|
A|----------------|
E|----------------|

Please give me credit if you use this tab for a video





Comments


Popular Garry Schyman tabs & chords
Trip The Light Chords
Cohens Masterpiece Tabs
Dancers On A String Tabs
Eleanors Lullaby Tabs
Out Of The Airlock Tabs
Pairbond Tabs
Praan Tabs
Waking Up In 1959 Tabs
Trip The Light Ukulele


Song lyrics



↑ Back to top | Tablatures and chords are parodies/interpretations of the original songs. You may use it for private study, scholarship, research or language learning purposes only
© 2014 AZChords.com Contact us | Privacy policy | DMCA | Add/correct tabs | Request tabs | Top 50 tabs