>
 >
Soy

Soy Guitar Tabs

Garigoles - Soy chords, tabs, tablatures, lyrics

Guitar lessons | Add/correct | Request | Top 50 tabs Artists:  A B C D E F G H I J K L M N O P Q R S T U V W X Y Z 0-9

Soy Guitar Tabs – Garigoles

CD, Sheet music, Poster

Do you like Soy? Share with your friends now
Tabs
soy


garigoles








                      x4
e:----------------------|
B:----------------------|
G:-5--5-5-5-------------|
D:-3--3-3-3--3--5-5-5-5-|
A:-----------1--3-3-3-3-|
E:----------------------|

  verse
  y tu crees que no lo puedo lograr...
  pm................................................
e:---------------------------------------------------|
B:---------------------------------------------------|
G:---------------------------------------------------|
D:---------------------------------------------------|
A:-3-3-3-3-3-3-3-3-3-3-3-3-3-3-3-3-3-3-3-3-3-3-3-3-3-|
E:-1-1-1-1-1-1-1-1-1-1-1-1-1-1-1-1-1-1-1-1-1-1-1-1-1-|

                           x4
e:---------------------------|
B:---------------------------|
G:-5--5-5-5--10--12-12-12-12-|
D:-3--3-3-3--8---10-10-10-10-|
A:---------------------------|
E:---------------------------|

  no me subestimes...
  pm................................................
e:---------------------------------------------------|
B:---------------------------------------------------|
G:---------------------------------------------------|
D:---------------------------------------------------|
A:-3-3-3-3-3-3-3-3-3-3-3-3-3-3-3-3-3-3-3-3-3-3-3-3-3-|
E:-1-1-1-1-1-1-1-1-1-1-1-1-1-1-1-1-1-1-1-1-1-1-1-1-1-|

                                                        x2
e:--------------------------------------------------------|
B:----------6-6-----------3-3-----------7-7-----------5-5-|
G:-5--5-5-5-5-5-----------3-3-----------7-7-----------5-5-|
D:-3--3-3-3-3-3--3--3-3-3-3-3--7--7-7-7-7-7--5--5-5-5-5-5-|
A:---------------1--1-1-1-1-1--5--5-5-5-5-5--3--3-3-3-3-3-|
E:--------------------------------------------------------|

soy un cabron en mas cabron soy yo... x2
e:-------------------------------------|
B:-------------------------------------|
G:-------------------------------------|
D:----------3---------------3-3--5-5-5-|
A:-3--------1--------3------1-1--3-3-3-|
E:-1-----------------1-----------------|

  si me lo propongo sere presidente
e:-----------------------------------------|
B:-----------------------------------------|
G:-----------------------------------------|
D:-3/5-5-5-5-5-5---3/5-5-5-5-5-5-5-5-5-5-5-|
A:-1/3-3-3-3-3-3---1/3-3-3-3-3-3-3-3-3-3-3-|
E:-----------------------------------------|

                           x4
e:---------------------------|
B:---------------------------|
G:-5--5-5-5--10--12-12-12-12-|
D:-3--3-3-3--8---10-10-10-10-|
A:---------------------------|
E:---------------------------|


  pm................................................
e:---------------------------------------------------|
B:---------------------------------------------------|
G:---------------------------------------------------|
D:---------------------------------------------------|
A:-3-3-3-3-3-3-3-3-3-3-3-3-3-3-3-3-3-3-3-3-3-3-3-3-3-|
E:-1-1-1-1-1-1-1-1-1-1-1-1-1-1-1-1-1-1-1-1-1-1-1-1-1-|

                           x4
e:---------------------------|
B:---------------------------|
G:-5--5-5-5--10--12-12-12-12-|
D:-3--3-3-3--8---10-10-10-10-|
A:---------------------------|
E:---------------------------|

  pm................................................
e:---------------------------------------------------|
B:---------------------------------------------------|
G:---------------------------------------------------|
D:---------------------------------------------------|
A:-3-3-3-3-3-3-3-3-3-3-3-3-3-3-3-3-3-3-3-3-3-3-3-3-3-|
E:-1-1-1-1-1-1-1-1-1-1-1-1-1-1-1-1-1-1-1-1-1-1-1-1-1-|


e:------------------------------------------------------------|
B:------------------------------------------------------------|
G:------------------------------------------------------------|
D:-----------3-3-------5-5------------------------------------|
A:-3-3-------1-1-------3-3------------------------------------|
E:-1-1--------------------------------------------------------|

                                    pick slide
e:------------------------------------------------------------|
B:------------------------------------------------------------|
G:------------------------------------------------------------|
D:-----------3-3-------5-5------------------------------------|
A:-3-3-------1-1-------3-3--------x\--------------------------|
E:-1-1----------------------------x\--------------------------|

                                    x6
e:------------------------------------|
B:------------------------------------|
G:------------------------------------|
D:-----------3-3-------5-5-------5--3-|
A:-3-3-------1-1-------3-3-------3--1-|
E:-1-1--------------------------------|


soy un cabron en mas cabron soy yo... x2
e:-------------------------------------|
B:-------------------------------------|
G:-------------------------------------|
D:----------3---------------3-3--5-5-5-|
A:-3--------1--------3------1-1--3-3-3-|
E:-1-----------------1-----------------|

  si me lo propongo sere presidente
e:-----------------------------------------|
B:-----------------------------------------|
G:-----------------------------------------|
D:-3/5-5-5-5-5-5---3/5-5-5-5-5-5-5-5-5-5-5-|
A:-1/3-3-3-3-3-3---1/3-3-3-3-3-3-3-3-3-3-3-|
E:-----------------------------------------|

                       ---------------------------------------------|
e:---------------4h5bf/-5-5-5-5-5-5-5p4-----------------------------|
B:-4h6b-6b-6b-6b------------------------6-6b-6b-6b--7b-7b-7b-5-7b---|
G:--------------------------------------------------7b-7b-7b-5-7b---|
D:------------------------------------------------------------------|
A:------------------------------------------------------------------|
E:------------------------------------------------------------------|

                       ----------------------------------------------|
e:---------------4h5bf/-5-5-5-5-5-5-5p4------------------------------|
B:-4h6b-6b-6b-6b------------------------6-6b-6b-6b--6b-6b-6b-6b-6b---|
G:-------------------------------------------------------------------|
D:-------------------------------------------------------------------|
A:-------------------------------------------------------------------|
E:-------------------------------------------------------------------|

   gt1
e:------------------------------------------------------------|
B:------------------------------------------------------------|
G:------------------------------------------------------------|
D:--------------3-3-3-3-3-3-3-3-----------------5-5-5-5-5-5-5-|
A:-3-3-3-3-3-3--1-1-1-1-1-1-1-1--3-3-3-3-3-3-3--3-3-3-3-3-3-3-|
E:-1-1-1-1-1-1-------------------1-1-1-1-1-1-1----------------|

  gt2
                       --------------------------------------------------|
e:---------------4h5bf/-5-5-5-5-5-5-5p4----4h5p4---4h5p4-----------------|
B:-4h6b-6b-6b-6b------------------------6--------6-------6--7b-7b-5-7b---|
G:----------------------------------------------------------7b-7b-5-7b---|
D:-----------------------------------------------------------------------|
A:-----------------------------------------------------------------------|
E:-----------------------------------------------------------------------|

                       ------------                              ---------------------|
e:---------------4h5bf/-5-5-5-5-5-5-5p4----4h5p4---4h5p4---4h5bf/-5-5-5-5-5-5-5p4-----|
B:-4h6b-6b-6b-6b------------------------6--------6-------6------------------------6---|
G:------------------------------------------------------------------------------------|
D:------------------------------------------------------------------------------------|
A:------------------------------------------------------------------------------------|
E:------------------------------------------------------------------------------------|

                                              x4
e:-8----------------------8---------------------|
B:-------11-10--11p10------------11-10-11p10----|
G:---10--0--0---0-----10-----10--------0-----10-|
D:----------------------------------------------|
A:----------------------------------------------|
E:----------------------------------------------|

   soy un cabron en mas cabron soy yo... x4
  pm...............................
e:-------8-----------------------------------|
B:---------------11--------10-------11p10----|
G:-10-10---10-10----10-10-----10-10-------10-|
D:-------------------------------------------|
A:-------------------------------------------|
E:-------------------------------------------|

e:------------------------------------------------------------|
B:------------------------------------------------------------|
G:------------------------------------------------------------|
D:-3----------------------------------------------------------|
A:-1----------------------------------------------------------|
E:------------------------------------------------------------|





hillo son mex

4/04/11





Comments


Popular Garigoles tabs & chords
Cantautor Tabs
Dimmu Borgir Tabs
El Fantasma Del Mascusia Tabs
El Hombre De 2 Cabezas Tabs
Fuera De Este Mundo Tabs
Los Malos De Las Peliculas B Tabs
Manocero Tabs
Pirulerman Tabs
Qlero Tabs
Vampiro Garces Tabs


Song lyrics



↑ Back to top | Tablatures and chords are parodies/interpretations of the original songs. You may use it for private study, scholarship, research or language learning purposes only
© 2014 AZChords.com Contact us | Privacy policy | DMCA | Add/correct tabs | Request tabs | Top 50 tabs