» » »

Garigoles, Qlero Tabs (ver.1)

Artists:  A B C D E F G H I J K L M N O P Q R S T U V W X Y Z # 

Qlero Tabs (ver.1)

Garigoles Tabs
 Rating:
4/5 (4 votes)
Qlero lessons Tabs too difficult? Try these video lessons and learn fast
                q'lero


garigoles








                      x8                                         
e:----------------------|
B:----------------------|
G:----------------------|
D:----------7-7--9-10-9-|
A:-3---8-8--5-5--7-8--7-|
E:-1---6-6--------------|

   verse
e:----------------------------------------|
B:----------------------------------------|
G:----------------------------------------|
D:----------------------3-3-2----3-3-2----|
A:-3-3-3-3-3-3-3-3-3-3--1-1-0-3--1-1-0-3--|
E:-1-1-1-1-1-1-1-1-1-1--------1--------1--|


e:----------------------------------------------|
B:----------------------------------------------|
G:----------------------------------------------|
D:------------7-7-7-7-7--5-5-5-5-5--10-10-10-10-|
A:-3-3-3-3-3--5-5-5-5-5--3-3-3-3-3--8--8--8--8--|
E:-1-1-1-1-1------------------------------------|

e:----------------------------------------------|
B:----------------------------------------------|
G:----------------------------------------------|
D:------------7-7-7-7-7-------------------------|
A:-3-3-3-3-3--5-5-5-5-5--5-5-5-5-5--10-10-10-10-|
E:-1-1-1-1-1-------------3-3-3-3-3--8--8--8--8--|

                      x5                                         
e:----------------------|
B:----------------------|
G:----------------------|
D:----------7-7--9-10-9-|
A:-3---8-8--5-5--7-8--7-|
E:-1---6-6--------------|

   verse
e:----------------------------------------|
B:----------------------------------------|
G:----------------------------------------|
D:----------------------3-3-2----3-3-2----|
A:-3-3-3-3-3-3-3-3-3-3--1-1-0-3--1-1-0-3--|
E:-1-1-1-1-1-1-1-1-1-1--------1--------1--|


e:----------------------------------------------|
B:----------------------------------------------|
G:----------------------------------------------|
D:------------7-7-7-7-7--5-5-5-5-5--10-10-10-10-|
A:-3-3-3-3-3--5-5-5-5-5--3-3-3-3-3--8--8--8--8--|
E:-1-1-1-1-1------------------------------------|

e:----------------------------------------------|
B:----------------------------------------------|
G:----------------------------------------------|
D:------------7-7-7-7-7-------------------------|
A:-3-3-3-3-3--5-5-5-5-5--5-5-5-5-5--10-10-10-10-|
E:-1-1-1-1-1-------------3-3-3-3-3--8--8--8--8--|

                                                        pick slide
e:----------------------------------------------------------------------|
B:----------------------------------------------------------------------|
G:----------------------------------------------------------------------|
D:----------------------------------------------------------------------|
A:-3------------3-3----------3-3------------3-3---------x\--------------|
E:-1------------1-1----------1-1------------1-1---------x\--------------|

                 x9
e:-----------------|
B:-----------------|
G:-----------------|
D:-----------------|
A:---3-3-3---3---3-|
E:-0-1-1-1-0-1-0-1-|

  culero!!!...       x2
e:---------------------|
B:---------------------|
G:---------------------|
D:---------------------|
A:-3---3-3-3-3---3-3---|
E:-0h1-1-1-1-0h1-1-1-0-|

                     x2
e:---------------------|
B:---------------------|
G:---------------------|
D:-6/7-7-7-7-6/7-7-7-6-|
A:-4/5-5-5-5-4/5-5-5-4-|
E:---------------------|

                     x2
e:---------------------|
B:---------------------|
G:---------------------|
D:---------------------|
A:-3---3-3-3-3---3-3---|
E:-0h1-1-1-1-0h1-1-1-0-|

                     x2
e:---------------------|
B:---------------------|
G:---------------------|
D:-4/5-5-5-5-4/5-5-5-4-|
A:-2/3-3-3-3-2/3-3-3-2-|
E:---------------------|

                      x4                                         
e:----------------------|
B:----------------------|
G:----------------------|
D:----------7-7--9-10-9-|
A:-3---8-8--5-5--7-8--7-|
E:-1---6-6--------------|

e:------------------------------------------------------------|
B:------------------------------------------------------------|
G:------------------------------------------------------------|
D:------------------------------------------------------------|
A:-3----------------------------------------------------------|
E:-1----------------------------------------------------------|


hillo son mex

3/04/11
            
Submit corrections

comments powered by Disqus
↑ Back to top | Garigoles Tabs for Qlero. Lyrics for acoustic guitar and electric guitar. Tablatures and chords are parodies/interpretations of the original songs. You may use it for private study, scholarship, research or language learning purposes only