>
 >
Pirulerman

Pirulerman Guitar Tabs

Garigoles - Pirulerman chords, tabs, tablatures, lyrics

Guitar lessons | Add/correct | Request | Top 50 tabs Artists:  A B C D E F G H I J K L M N O P Q R S T U V W X Y Z 0-9

Pirulerman Guitar Tabs – Garigoles

CD, Sheet music, Poster

Do you like Pirulerman? Share with your friends now
Tabs
pirulerman


garigoles








                                               
eb:-------------------|
Bb:-----10-----7------|
Gb:-7-7----7-9---9--7-|
Db:-0-0----0-0---0--0-|
Ab:-------------------|
Eb:-------------------|

eb:-------------------------------------------------------------------------------|
Bb:---10---10-10----10----10-10-7------8-10-8-----8-10---10-10-8------------------|
Gb:-7----7--------7----7----------7--7----------7------7---------7--7-9-9-7-9-9-7-|
Db:-0-------------0------------------0----------0----------------0--0-0-0-0-0-0-0-|
Ab:-------------------------------------------------------------------------------|
Eb:-------------------------------------------------------------------------------|

eb:-----------------------------------------------------7-------12----7-------7-----|
Bb:---10-10---10-10------8-10-8-------8---7-7--------10------10------8--8---8---8---|
Gb:-7-------7-------7--7----------7-7---7-----9-7--7-------7-------7------7-------7-|
Db:-0-------0-------0--0----------0-------------0-----------------------------------|
Ab:---------------------------------------------------------------------------------|
Eb:---------------------------------------------------------------------------------|

eb:----------------|
Bb:---8---8-8------|
Gb:-7---7-----7-7--|
Db:----------------|
Ab:----------------|
Eb:----------------|

    sucedio tan derrepente    no sabia que pasaria
eb:-2--2----2-------2----2----3----3----3----3---3-|
Bb:-3--3----3-------3----3----3----3----3----3---3-|
Gb:-2--2----2-------2----2----0----0----0----0---0-|
Db:-0--0----0-------0----0----0----0----0----0---0-|
Ab:---------------------------2----2----2----2---2-|
Eb:---------------------------3----3----3----3---3-|

eb:-2--2----2-------2----2----3----3----3----3---3-|
Bb:-3--3----3-------3----3----3----3----3----3---3-|
Gb:-2--2----2-------2----2----0----0----0----0---0-|
Db:-0--0----0-------0----0----0----0----0----0---0-|
Ab:---------------------------2----2----2----2---2-|
Eb:---------------------------3----3----3----3---3-|

     seria seria

     gt1
eb:--------------------3-3-3-3-3-3----------2-3-2-------|
Bb:-3-3-3-3-3-3-3-3-3--3-3-3-3-3-3--3-3-3-3-3-3-3-3-3-3-|
Gb:-0-0-0-0-0-0-0-0-0--0-0-0-0-0-0--2-2-2-2-2-2-2-2-2-2-|
Db:-2-2-2-2-2-2-2-2-2--0-0-0-0-0-0--0-0-0-0-0-0-0-0-0-0-|
Ab:-3-3-3-3-3-3-3-3-3--2-2-2-2-2-2----------------------|
Eb:--------------------3-3-3-3-3-3----------------------|

     gt2
eb:------7------7--------7-----7------------2-3-2-------|
Bb:---10-----10--------8-----8------3-3-3-3-3-3-3-3-3-3-|
Gb:-7------7------7--7-----7-----7--2-2-2-2-2-2-2-2-2-2-|
Db:---------------------------------0-0-0-0-0-0-0-0-0-0-|
Ab:-----------------------------------------------------|
Eb:-----------------------------------------------------|

    esta linda ciudad lo hago yo
eb:------------------------------------------------------------------------|
Bb:-3----------------------------------------------------------------------|
Gb:-4------------------------------------------4----------7----------------|
Db:-4-------------------------/12--------------4----------7------------4/--|
Ab:-2-------------------------/10--------------2----------5----5-5-7-7-----|
Eb:--------------------------------------12/--------12/--------------------|

    el llegar a este planeta  era...          pm.............................
eb:--------------------------------------------------------------------------------|
Bb:-3------------------------------------------------------------------------------|
Gb:-4-------------------------9--------9/11-11--11-11-11-11-11-11-11-11-11-11--11/-|
Db:-4-------------------------9--------9/11-11--11-11-11-11-11-11-11-11-11-11--11/-|
Ab:-2-------------------------7--------7/9--9---9--9--9--9--9--9--9--9--9--9---9-/-|
Eb:--------------------------------------------------------------------------------|

  superman y el hombre araņa...
   gt1
eb:-2-2--------2-----------3-3--------3-3-------3---|
Bb:-3---3--------3-----3---3---3------3---3---3---3-|
Gb:-2-----2-2------2-2---2-0-----0----0-----0-------|
Db:-0-------0--------0-----0----------0-------------|
Ab:------------------------2----------2-------------|
Eb:------------------------3--------3-3-------------|
   gt2
eb:-2--2----2-------2----2----3----3----3----3---3-|
Bb:-3--3----3-------3----3----3----3----3----3---3-|
Gb:-2--2----2-------2----2----0----0----0----0---0-|
Db:-0--0----0-------0----0----0----0----0----0---0-|
Ab:---------------------------2----2----2----2---2-|
Eb:---------------------------3----3----3----3---3-|

    gt1
eb:-2-2--------2-----------3-3--------3-3-------3---3-3-----|
Bb:-3---3--------3-----3---3---3------3---3---3---3-----3---|
Gb:-2-----2-2------2-2---2-0-----0----0-----0-------------0-|
Db:-0-------0--------0-----0----------0---------------------|
Ab:------------------------2----------2---------------------|
Eb:------------------------3--------3-3---------------------|
    gt2
eb:-2--2----2-------2----2----3----3----3----3---3-|
Bb:-3--3----3-------3----3----3----3----3----3---3-|
Gb:-2--2----2-------2----2----0----0----0----0---0-|
Db:-0--0----0-------0----0----0----0----0----0---0-|
Ab:---------------------------2----2----2----2---2-|
Eb:---------------------------3----3----3----3---3-|

    gt1
eb:------7------7--------7-----7------------2-3-2-------|
Bb:---10-----10--------8-----8------3-3-3-3-3-3-3-3-3-3-|
Gb:-7------7------7--7-----7-----7--2-2-2-2-2-2-2-2-2-2-|
Db:---------------------------------0-0-0-0-0-0-0-0-0-0-|
Ab:-----------------------------------------------------|
Eb:-----------------------------------------------------|
     gt2
eb:--------------------3-3-3-3-3-3----------2-3-2-------|
Bb:-3-3-3-3-3-3-3-3-3--3-3-3-3-3-3--3-3-3-3-3-3-3-3-3-3-|
Gb:-0-0-0-0-0-0-0-0-0--0-0-0-0-0-0--2-2-2-2-2-2-2-2-2-2-|
Db:-2-2-2-2-2-2-2-2-2--0-0-0-0-0-0--0-0-0-0-0-0-0-0-0-0-|
Ab:-3-3-3-3-3-3-3-3-3--2-2-2-2-2-2----------------------|
Eb:--------------------3-3-3-3-3-3----------------------|


eb:-2--2----2-------2----2----3----3----3----3---3-|
Bb:-3--3----3-------3----3----3----3----3----3---3-|
Gb:-2--2----2-------2----2----0----0----0----0---0-|
Db:-0--0----0-------0----0----0----0----0----0---0-|
Ab:---------------------------2----2----2----2---2-|
Eb:---------------------------3----3----3----3---3-|

eb:-2--2----2-------2----2----3----3----3----3---3-|
Bb:-3--3----3-------3----3----3----3----3----3---3-|
Gb:-2--2----2-------2----2----0----0----0----0---0-|
Db:-0--0----0-------0----0----0----0----0----0---0-|
Ab:---------------------------2----2----2----2---2-|
Eb:---------------------------3----3----3----3---3-|

     
eb:------7------7--------7-----7------------2-3-2-------|
Bb:---10-----10--------8-----8------3-3-3-3-3-3-3-3-3-3-|
Gb:-7------7------7--7-----7-----7--2-2-2-2-2-2-2-2-2-2-|
Db:---------------------------------0-0-0-0-0-0-0-0-0-0-|
Ab:-----------------------------------------------------|
Eb:-----------------------------------------------------|

    esta linda ciudad lo hago yo
eb:------------------------------------------------------------------------|
Bb:-3----------------------------------------------------------------------|
Gb:-4------------------------------------------4----------7----------------|
Db:-4-------------------------/12--------------4----------7------------4/--|
Ab:-2-------------------------/10--------------2----------5----5-5-7-7-----|
Eb:--------------------------------------12/--------12/--------------------|

    el llegar a este planeta  era...          pm.............................
eb:--------------------------------------------------------------------------------|
Bb:-3------------------------------------------------------------------------------|
Gb:-4-------------------------9--------9/11-11--11-11-11-11-11-11-11-11-11-11--11/-|
Db:-4-------------------------9--------9/11-11--11-11-11-11-11-11-11-11-11-11--11/-|
Ab:-2-------------------------7--------7/9--9---9--9--9--9--9--9--9--9--9--9---9-/-|
Eb:--------------------------------------------------------------------------------|

  superman y el hombre araņa...
eb:-2-2--------2-----------3-3--------3-3-------3---|
Bb:-3---3--------3-----3---3---3------3---3---3---3-|
Gb:-2-----2-2------2-2---2-0-----0----0-----0-------|
Db:-0-------0--------0-----0----------0-------------|
Ab:------------------------2----------2-------------|
Eb:------------------------3--------3-3-------------|

eb:-2-2--------2-----------3-3--------3-3-------3---3-3-----|
Bb:-3---3--------3-----3---3---3------3---3---3---3-----3---|
Gb:-2-----2-2------2-2---2-0-----0----0-----0-------------0-|
Db:-0-------0--------0-----0----------0---------------------|
Ab:------------------------2----------2---------------------|
Eb:------------------------3--------3-3---------------------|

eb:------7------7--------7-----7------------2-3-2-------|
Bb:---10-----10--------8-----8------3-3-3-3-3-3-3-3-3-3-|
Gb:-7------7------7--7-----7-----7--2-2-2-2-2-2-2-2-2-2-|
Db:---------------------------------0-0-0-0-0-0-0-0-0-0-|
Ab:-----------------------------------------------------|
Eb:-----------------------------------------------------|

eb:------------------------------------------------------------------------------|
Bb:------------------------------------------------------------------------------|
Gb:------------------------------------------------------------------------------|
Db:---4b---4---------------4--4-7-7-7-4--4-4---4-----------------4-----4--4-4--4-|
Ab:-5----7---7-5-5---5---7-------------------7---7-5--5-7-7--7-7---7-7-----------|
Eb:------------------------------------------------------------------------------|

eb:------------------------------------------------------|
Bb:------------------------------------------------------|
Gb:------------------------------------------------------|
Db:---------------4-----------------5-5-5----------------|
Ab:-7--7-7-7--7-7---7-5-5-5-5-5-5-5--------7-7-7-5-5-5-5-|
Eb:------------------------------------------------------|


eb:-2-2--------2-----------3-3--------3-3-------3---|
Bb:-3---3--------3-----3---3---3------3---3---3---3-|
Gb:-2-----2-2------2-2---2-0-----0----0-----0-------|
Db:-0-------0--------0-----0----------0-------------|
Ab:------------------------2----------2-------------|
Eb:------------------------3--------3-3-------------|

eb:-2-2--------2-----------3-3--------3-3-------3---3-3-----|
Bb:-3---3--------3-----3---3---3------3---3---3---3-----3---|
Gb:-2-----2-2------2-2---2-0-----0----0-----0-------------0-|
Db:-0-------0--------0-----0----------0---------------------|
Ab:------------------------2----------2---------------------|
Eb:------------------------3--------3-3---------------------|

   pirulerman los salvara...
   gt1                                     repeat
eb:-2--2----2-------2----2----3----3----3----3---3-|
Bb:-3--3----3-------3----3----3----3----3----3---3-|
Gb:-2--2----2-------2----2----0----0----0----0---0-|
Db:-0--0----0-------0----0----0----0----0----0---0-|
Ab:---------------------------2----2----2----2---2-|
Eb:---------------------------3----3----3----3---3-|

   gt2                             repeat
eb:------10------10---------10------10---|
Bb:---10------10---------10------10------|
Gb:-7-------7-------7--7-------7-------7-|
Db:--------------------------------------|
Ab:--------------------------------------|
Eb:--------------------------------------|

    
    gt2 (3:30) repeat
eb:------------------|
Bb:---7-8---8-7---7--|
Gb:-7-----7-----7----|
Db:------------------|
Ab:------------------|
Eb:------------------|

   final
     gt1
eb:--------------------3-3-3-3-3-3-3-3-3-3----2---|
Bb:-3-3-3-3-3-3-3-3-3--3-3-3-3-3-3-3-3-3-3----3---|
Gb:-0-0-0-0-0-0-0-0-0--0-0-0-0-0-0-0-0-0-0----2---|
Db:-2-2-2-2-2-2-2-2-2--0-0-0-0-0-0-0-0-0-0----0---|
Ab:-3-3-3-3-3-3-3-3-3--2-2-2-2-2-2-2-2-2-2--------|
Eb:--------------------3-3-3-3-3-3-3-3-3-3--------|

     gt2
eb:------10------10---------10------10--------2---|
Bb:---10------10---------8-------8------------3---|
Gb:-7-------7-------7--7-------7-------7--7---2---|
Db:---------------------------------------0---0---|
Ab:-----------------------------------------------|
Eb:-----------------------------------------------|



hillo son mex

23/02/10





Comments


Popular Garigoles tabs & chords
Cantautor Tabs
Dimmu Borgir Tabs
El Fantasma Del Mascusia Tabs
El Hombre De 2 Cabezas Tabs
Endrocarditis Bateriana Tabs
La Abduccion De Aurora Tabs
Los Malos De Las Peliculas B Tabs
Machine Gun Tabs
Soy Tabs
Vampiro Garces Tabs


Song lyrics



↑ Back to top | Tablatures and chords are parodies/interpretations of the original songs. You may use it for private study, scholarship, research or language learning purposes only
© 2014 AZChords.com Contact us | Privacy policy | DMCA | Add/correct tabs | Request tabs | Top 50 tabs