>
 >
Mr Sci-fi

Mr Sci-fi Guitar Tabs

Garigoles - Mr Sci-fi chords, tabs, tablatures, lyrics

Guitar lessons | Add/correct | Request | Top 50 tabs Artists:  A B C D E F G H I J K L M N O P Q R S T U V W X Y Z 0-9

Mr Sci-fi Guitar Tabs – Garigoles

CD, Sheet music, Poster

Do you like Mr Sci-fi? Share with your friends now
Tabs
mr. sci-fi


garigoles







                                              

                   x4
e:------------------|
B:------------------|
G:------------------|
D:----5-3--3/5--5-5-|
A:-3--3-1--1/3--3-3-|
E:-1----------------|

  si tuvieras un pais de ciencia ficcion...
                                                   x4
e:--------------------------------------------------|
B:--------------------------------------------------|
G:--------------------------------------------------|
D:-7--7-7-7-7---10--10-10-10-10--5--5-5-5-5-5-5-5-5-|
A:-5--5-5-5-5---8---8--8--8--8---3--3-3-3-3-3-3-3-3-|
E:--------------------------------------------------|


e:-----------------------------------|
B:-----------------------------------|
G:-----------------------------------|
D:-------------10--10-10---10--10-10-|
A:-7----5------8---8--8----8---8--8--|
E:-5----3----------------------------|

e:----------------------------|
B:----------------------------|
G:----------------------------|
D:-------------5--5-5--5--5-5-|
A:-7----5------3--3-3--3--3-3-|
E:-5----3---------------------|

                   x4
e:------------------|
B:------------------|
G:------------------|
D:----5-3--3/5--5-5-|
A:-3--3-1--1/3--3-3-|
E:-1----------------|

                                                   x4
e:--------------------------------------------------|
B:--------------------------------------------------|
G:--------------------------------------------------|
D:-7--7-7-7-7---10--10-10-10-10--5--5-5-5-5-5-5-5-5-|
A:-5--5-5-5-5---8---8--8--8--8---3--3-3-3-3-3-3-3-3-|
E:--------------------------------------------------|


e:-----------------------------------|
B:-----------------------------------|
G:-----------------------------------|
D:-------------10--10-10---10--10-10-|
A:-7----5------8---8--8----8---8--8--|
E:-5----3----------------------------|

e:----------------------------|
B:----------------------------|
G:----------------------------|
D:-------------5--5-5--5--5-5-|
A:-7----5------3--3-3--3--3-3-|
E:-5----3---------------------|

   gt1              x2
e:-------------------|
B:-------------------|
G:-------------------|
D:-10--------------5-|
A:-8---7---8---3---3-|
E:-----5---6---1-----|
  gt2
e:---------------------------------------------------------|
B:-10--10-11-10--10-11-10--10---10--10-11-10--10-11-10--10-|
G:-10--10-10-10--10-10-10--10---10--10-10-10--10-10-10--10-|
D:-10--10-10-10--10-10-10--10---10--10-10-10--10-10-10--10-|
A:-8-----------------------8----0-----------------------0--|
E:---------------------------------------------------------|

   gt2
e:----------------------------------------------------|
B:---10-11--10-10-11-10----10-11--10------10-11-10----|
G:---10-10--10-10-10-10----10-10--10------10-10-10-10-|
D:---10-10--10-10-10-10----10-10--10------10-10-10-10-|
A:------------------------------------10--------------|
E:-6---------------------8----------------------------|

  gt2
e:---------------------------------------------------------|
B:-10--10-11-10--10-11-10--10---10--10-11-10--10-11-10--10-|
G:-10--10-10-10--10-10-10--10---10--10-10-10--10-10-10--10-|
D:-10--10-10-10--10-10-10--10---10--10-10-10--10-10-10--10-|
A:-8-----------------------8----0-----------------------0--|
E:---------------------------------------------------------|

   gt2
e:----------------------------------------------------|
B:---10-11--10-10-11-10----10-11--10------10-11-10----|
G:---10-10--10-10-10-10----10-10--10------10-10-10-10-|
D:---10-10--10-10-10-10----10-10--10------10-10-10-10-|
A:------------------------------------10--------------|
E:-6---------------------8----------------------------|


e:----------------------------------------|
B:----------------------------------------|
G:----------------------------------------|
D:-3-3-3-3--7-7-7-7-7--5-5-5-5-5-5-5-5-5--|
A:-1-1-1-1--5-5-5-5-5--3-3-3-3-3-3-3-3-3--|
E:----------------------------------------|

e:----------------------------------------|
B:----------------------------------------|
G:----------------------------------------|
D:-3-3-3-3-------------5-5-5-5-5-5-5-5-5--|
A:-1-1-1-1--3-3-3-3-3--3-3-3-3-3-3-3-3-3--|
E:----------1-1-1-1-1---------------------|

e:----------------------------------------|
B:----------------------------------------|
G:----------------------------------------|
D:-3-3-3-3--7-7-7-7-7--5-5-5-5-5-5-5-5-5--|
A:-1-1-1-1--5-5-5-5-5--3-3-3-3-3-3-3-3-3--|
E:----------------------------------------|

e:----------------------------------------|
B:----------------------------------------|
G:----------------------------------------|
D:-3-3-3-3-------------5-5-5-5-5-5-5-5-5--|
A:-1-1-1-1--3-3-3-3-3--3-3-3-3-3-3-3-3-3--|
E:----------1-1-1-1-1---------------------|


e:--------------------------------------------------------------------------|
B:---------------------/10-11-10----8/10-11-10------------------------------|
G:-/9~~--/10~~--12-12------------12------------12-10-12-12/14-12-10-12~~~~~-|
D:--------------------------------------------------------------------------|
A:--------------------------------------------------------------------------|
E:--------------------------------------------------------------------------|

e:------------------------------------------------------------------------------------|
B:-------------------------------15-15b~~~~\--15-15-13--------------------------------|
G:-15/17-15-14-15-14----14-14/17-----------------------15-14-15-14-----14-15/17-15-14-|
D:-------------------15--------------------------------------------15-----------------|
A:------------------------------------------------------------------------------------|
E:------------------------------------------------------------------------------------|

e:------------------------------------------------------------------------------------|
B:------------------------------13----------------------------------------------------|
G:----14/17~~~~--12-15-14-14-15----15~~~-15-14-14-15-14----------15-14-14-15-17-15~~~-|
D:-15---------------------------------------------------17-15~~~----------------------|
A:------------------------------------------------------------------------------------|
E:------------------------------------------------------------------------------------|

e:------------------------------------------------------------------|
B:------------------------------------------------------------------|
G:-12/14--13/15-14-12-------------------14--------------------------|
D:---------------------15~~~-----15---------15---------15~~~~~~~~~~-|
A:------------------------------------------------------------------|
E:------------------------------------------------------------------|

    pick slide
e:------------------------------------------------------------|
B:------------------------------------------------------------|
G:------------------------------------------------------------|
D:------------------------------------------------------------|
A:-x\---------------------------------------------------------|
E:-x\---------------------------------------------------------|


e:----------------------------------------|
B:----------------------------------------|
G:----------------------------------------|
D:-3-3-3-3--7-7-7-7-7--5-5-5-5-5-5-5-5-5--|
A:-1-1-1-1--5-5-5-5-5--3-3-3-3-3-3-3-3-3--|
E:----------------------------------------|

e:----------------------------------------|
B:----------------------------------------|
G:----------------------------------------|
D:-3-3-3-3--7-7-7-7-7---------------------|
A:-1-1-1-1--5-5-5-5-5--3-3-3-3-3-3-3-3-3--|
E:---------------------1-1-1-1-1-1-1-1-1--|

   gt1              x2
e:-------------------|
B:-------------------|
G:-------------------|
D:-10--------------5-|
A:-8---7---8---3---3-|
E:-----5---6---1-----|
  gt2
e:---------------------------------------------------------|
B:-10--10-11-10--10-11-10--10---10--10-11-10--10-11-10--10-|
G:-10--10-10-10--10-10-10--10---10--10-10-10--10-10-10--10-|
D:-10--10-10-10--10-10-10--10---10--10-10-10--10-10-10--10-|
A:-8-----------------------8----0-----------------------0--|
E:---------------------------------------------------------|

   gt2
e:----------------------------------------------------|
B:---10-11--10-10-11-10----10-11--10------10-11-10----|
G:---10-10--10-10-10-10----10-10--10------10-10-10-10-|
D:---10-10--10-10-10-10----10-10--10------10-10-10-10-|
A:------------------------------------10--------------|
E:-6---------------------8----------------------------|

  gt2
e:---------------------------------------------------------|
B:-10--10-11-10--10-11-10--10---10--10-11-10--10-11-10--10-|
G:-10--10-10-10--10-10-10--10---10--10-10-10--10-10-10--10-|
D:-10--10-10-10--10-10-10--10---10--10-10-10--10-10-10--10-|
A:-8-----------------------8----0-----------------------0--|
E:---------------------------------------------------------|

   gt2
e:----------------------------------------------------|
B:---10-11--10-10-11-10----10-11--10------10-11-10----|
G:---10-10--10-10-10-10----10-10--10------10-10-10-10-|
D:---10-10--10-10-10-10----10-10--10------10-10-10-10-|
A:------------------------------------10--------------|
E:-6---------------------8----------------------------|

                   x4
e:------------------|
B:------------------|
G:------------------|
D:----5-3--3/5--5-5-|
A:-3--3-1--1/3--3-3-|
E:-1----------------|

e:------------------------------------------------------------|
B:------------------------------------------------------------|
G:------------------------------------------------------------|
D:------------------------------------------------------------|
A:-3----------------------------------------------------------|
E:-1----------------------------------------------------------|





hillo son mex

7/04/11





Comments


Popular Garigoles tabs & chords
Dimmu Borgir Tabs
El Fantasma Del Mascusia Tabs
El Hombre De 2 Cabezas Tabs
Endrocarditis Bateriana Tabs
Fuera De Este Mundo Tabs
Los Malos De Las Peliculas B Tabs
Pirulerman Tabs
Qlero Tabs
Soy Tabs
Vampiro Garces Tabs


Song lyrics



↑ Back to top | Tablatures and chords are parodies/interpretations of the original songs. You may use it for private study, scholarship, research or language learning purposes only
© 2014 AZChords.com Contact us | Privacy policy | DMCA | Add/correct tabs | Request tabs | Top 50 tabs