>
 >
Manocero

Manocero Guitar Tabs

Garigoles - Manocero chords, tabs, tablatures, lyrics

Guitar lessons | Add/correct | Request | Top 50 tabs Artists:  A B C D E F G H I J K L M N O P Q R S T U V W X Y Z 0-9

Manocero Guitar Tabs – Garigoles

CD, Sheet music, Poster

Do you like Manocero? Share with your friends now
Tabs
manocero


garigoles








   coger un cuerpo era yo un degenerado... 
e:-10-10--12-12--8--8---10-10--7--7---12-12--8--8---10-10-|
B:-10-10--12-12--8--8---10-10--7--7---12-12--8--8---10-10-|
G:-0--0---0--0---0--0---0--0---0--0---0--0---0--0---0--0--|
D:--------------------------------------------------------|
A:--------------------------------------------------------|
E:--------------------------------------------------------|

                            x4
e:-7--7---12-12--8--8---10-10-|
B:-7--7---12-12--8--8---10-10-|
G:-0--0---0--0---0--0---0--0--|
D:----------------------------|
A:----------------------------|
E:----------------------------|


e:------------------------------------------------------------|
B:------------------------------------------------------------|
G:------------------------------------------------------------|
D:-5----------------------------------------------------------|
A:-5----------------------------------------------------------|
E:-3----------------------------------------------------------|

                                  x2
e:----------------------------------|
B:----------------------------------|
G:----------------------------------|
D:----------------------------------|
A:-10-9-10-9--------10-9-10-9----12-|
E:-----------10---------------10----|

  estoy triste                       x2
e:-------------------------------------|
B:-------------------------------------|
G:-------------------------------------|
D:----------------9------------------9-|
A:-10-9-10-9----------10-9-10-9----9---|
E:-----------10-----------------10-----|

                                                        x4
e:--------------------------------------------------------|
B:--------------------------------------------------------|
G:--------------------------------------------------------|
D:------------4-4-4-4-4-4-4--5-5-5-5-5-5-5--4-4-4-4-4-4-4-|
A:-5-5-5-5-5--2-2-2-2-2-2-2--3-3-3-3-3-3-3--2-2-2-2-2-2-2-|
E:-3-3-3-3-3----------------------------------------------|


e:---------------------------------|
B:---------------------------------|
G:---------------------------------|
D:-5-------------------------------|
A:-5---------------5-5-5-5-5-5-5-5-|
E:-3---------------3-3-3-3-3-3-3-3-|

 
e:-10-10--12-12--8--8---10-10--7--7---12-12--8--8---10-10-|
B:-10-10--12-12--8--8---10-10--7--7---12-12--8--8---10-10-|
G:-0--0---0--0---0--0---0--0---0--0---0--0---0--0---0--0--|
D:--------------------------------------------------------|
A:--------------------------------------------------------|
E:--------------------------------------------------------|

                            x4
e:-7--7---12-12--8--8---10-10-|
B:-7--7---12-12--8--8---10-10-|
G:-0--0---0--0---0--0---0--0--|
D:----------------------------|
A:----------------------------|
E:----------------------------|

                                  x4
e:----------------------------------|
B:----------------------------------|
G:----------------------------------|
D:----------------------------------|
A:-10-9-10-9--------10-9-10-9----12-|
E:-----------10---------------10----|

  muy triste a mi cuates no vere...  x2
e:-------------------------------------|
B:-------------------------------------|
G:-------------------------------------|
D:----------------9------------------9-|
A:-10-9-10-9----------10-9-10-9----9---|
E:-----------10-----------------10-----|

                                                        x3
e:--------------------------------------------------------|
B:--------------------------------------------------------|
G:--------------------------------------------------------|
D:------------4-4-4-4-4-4-4--5-5-5-5-5-5-5--4-4-4-4-4-4-4-|
A:-5-5-5-5-5--2-2-2-2-2-2-2--3-3-3-3-3-3-3--2-2-2-2-2-2-2-|
E:-3-3-3-3-3----------------------------------------------|

e:----------------------------------------------------|
B:----------------------------------------------------|
G:----------------------------------------------------|
D:------------4-4-4-4-4-4-4--5-5-5-5-5-5-5--4-4-4-----|
A:-5-5-5-5-5--2-2-2-2-2-2-2--3-3-3-3-3-3-3--2-2-2h3p2-|
E:-3-3-3-3-3------------------------------------------|

                                            x5
e:-------------------------------------------|
B:-------------------------------------------|
G:-0--0-0-0--0-0-0-0-0--0-0-0-0-0--0-0-0-0-0-|
D:-5--5-5-5--4-4-4-4-4--5-5-5-5-5--7-7-7-7-7-|
A:-5--5-5-5--2-2-2-2-2--3-3-3-3-3--5-5-5-5-5-|
E:-3--3-3-3----------------------------------|


e:------------------------------------------------------------|
B:------------------------------------------------------------|
G:------------------------------------------------------------|
D:-5---------------------5\-----------------------------------|
A:-5---------------------5\-----------------------------------|
E:-3---------------------3\-----------------------------------|

            pick slide       el cardenal no esta muerto
e:--------------------------------------------------------------------|
B:-------------x/x\x--x/x\x--------------------------------------12b--|
G:-------------x/x\x--x/x\x--------------------------------------12b--|
D:-------------x/x\x--x/x\x--------------7nh-x-x-x-x-x----------------|
A:---------------------------------------7nh-x-x-x-x-x----------------|
E:---------------------------------------7nh-x-x-x-x-x----------------|

                               x2
e:------------------------------|
B:------------------------------|
G:------------------------------|
D:--------------2-------7-7-7---|
A:--5-----2-----0-------5-5-5---|
E:--3-----0---------------------|

                                    x2
e:------------------------------------|
B:------------------------------------|
G:------------------------------------|
D:-------------------2-2-2-2-2--7-7-7-|
A:-5-5-5-5--2-2-2-2--0-0-0-0-0--5-5-5-|
E:-3-3-3-3--0-0-0-0-------------------|

                                  x2                  
e:----------------------------------|
B:----------------------------------|
G:----------------------------------|
D:----------------------------------|
A:-10-9-10-9--------10-9-10-9----12-|
E:-----------10---------------10----|

  estoy triste...                    x2
e:-------------------------------------|
B:-------------------------------------|
G:-------------------------------------|
D:----------------9------------------9-|
A:-10-9-10-9----------10-9-10-9----9---|
E:-----------10-----------------10-----|

                                                        x4
e:--------------------------------------------------------|
B:--------------------------------------------------------|
G:--------------------------------------------------------|
D:------------4-4-4-4-4-4-4--5-5-5-5-5-5-5--4-4-4-4-4-4-4-|
A:-5-5-5-5-5--2-2-2-2-2-2-2--3-3-3-3-3-3-3--2-2-2-2-2-2-2-|
E:-3-3-3-3-3----------------------------------------------|


e:------------------------------------------------------------|
B:------------------------------------------------------------|
G:------------------------------------------------------------|
D:------------------------------------------------------------|
A:-5-----------------------5\---------------------------------|
E:-3-----------------------3\---------------------------------|





hillo son mex

5/04/11





Comments


Popular Garigoles tabs & chords
Cantautor Tabs
Dimmu Borgir Tabs
El Fantasma Del Mascusia Tabs
Endrocarditis Bateriana Tabs
Fuera De Este Mundo Tabs
La Abduccion De Aurora Tabs
Los Malos De Las Peliculas B Tabs
Machine Gun Tabs
Qlero Tabs
Soy Tabs


Song lyrics



↑ Back to top | Tablatures and chords are parodies/interpretations of the original songs. You may use it for private study, scholarship, research or language learning purposes only
© 2014 AZChords.com Contact us | Privacy policy | DMCA | Add/correct tabs | Request tabs | Top 50 tabs