>
 >
Machine Gun

Machine Gun Guitar Tabs

Garigoles - Machine Gun chords, tabs, tablatures, lyrics

Guitar lessons | Add/correct | Request | Top 50 tabs Artists:  A B C D E F G H I J K L M N O P Q R S T U V W X Y Z 0-9

Machine Gun Guitar Tabs – Garigoles

CD, Sheet music, Poster

Do you like Machine Gun? Share with your friends now
Tabs
machine gun (S.O.S.)


garigoles







 
  gt1                               x4                                              
e:------------------------------------|
B:------------------------------------|
G:------------------------------------|
D:-----------------------6-6-6--4-6-4-|
A:-2-2-2-2-2--6-6-6-6-6--4-4-4--2-4-2-|
E:-0-0-0-0-0--4-4-4-4-4---------------|

  gt2                                     x4
e:------------------------------------------|
B:-10-10-10-10--9-9-9-9---------------------|
G:-9--9--9--9---9-9-9-9---------------------|
D:------------------------11-11-11--9--11-9-|
A:------------------------x--x--x---x--x--x-|
E:------------------------9--9--9---7--9--7-|


  verse
  2 amigos te quiero presentar... x4  
e:----------------------------------|
B:----------------------------------|
G:----------------------------------|
D:--------------------------4-4-4-4-|
A:-2-2-2-2--6-6-6-6--2-2-2--2-2-2-2-|
E:-0-0-0-0--4-4-4-4--0-0-0----------|

                x4
e:----------------|
B:----------------|
G:----------------|
D:-9-9-------4-4--|
A:-7-7--6-6--2-2--|
E:------4-4-------|

  gt1
e:-----------|
B:-----------|
G:-----------|
D:-4-4-4-4-4-|
A:-2-2-2-2-2-|
E:-----------|
  gt2
e:------------------|
B:------------------|
G:------------------|
D:-4----------------|
A:-2--5-7p6p5-------|
E:------------7p6p5-|

                        x4
e:------------------------|
B:------------------------|
G:------------------------|
D:-9-9------------4-4-4-4-|
A:-7-7--6-6--2-2--2-2-2-2-|
E:------4-4--0-0----------|

  mario almada lo invento...      x4  
e:----------------------------------|
B:----------------------------------|
G:----------------------------------|
D:--------------------------4-4-4-4-|
A:-2-2-2-2--6-6-6-6--2-2-2--2-2-2-2-|
E:-0-0-0-0--4-4-4-4--0-0-0----------|

                x4
e:----------------|
B:----------------|
G:----------------|
D:-9-9-------4-4--|
A:-7-7--6-6--2-2--|
E:------4-4-------|

  gt2
e:------------------|
B:------------------|
G:------------------|
D:-4----------------|
A:-2--5-7p6p5-------|
E:------------7p6p5-|

                        x4
e:------------------------|
B:------------------------|
G:------------------------|
D:-9-9------------4-4-4-4-|
A:-7-7--6-6--2-2--2-2-2-2-|
E:------4-4--0-0----------|

                                   pick slide
e:------------------------------------------------------------|
B:------------------------------------------------------------|
G:------------------------------------------------------------|
D:-4--------(4)-----------------------------------------------|
A:-2--------(2)--------------------x\-------------------------|
E:---------------------------------x\-------------------------|

                        x4
e:------------------------|
B:------------------------|
G:------------------------|
D:-9-9------------4-4-4-4-|
A:-7-7--6-6--2-2--2-2-2-2-|
E:------4-4--0-0----------|


e:------------------------------------------|
B:-10-10-10-10--9-9-9-9---------------------|
G:-9--9--9--9---9-9-9-9---------------------|
D:------------------------11-11-11--9--11-9-|
A:------------------------x--x--x---x--x--x-|
E:------------------------9--9--9---7--9--7-|

e:------------------------|
B:------------------------|
G:------------------------|
D:-9-9------------4-4-4-4-|
A:-7-7--6-6--2-2--2-2-2-2-|
E:------4-4--0-0----------|

e:---|
B:---|
G:---|
D:-9-|
A:-7-|
E:---|




hillo son mex

3/04/11





Comments


Popular Garigoles tabs & chords
Dimmu Borgir Tabs
El Fantasma Del Mascusia Tabs
Endrocarditis Bateriana Tabs
Fuera De Este Mundo Tabs
La Abduccion De Aurora Tabs
Manocero Tabs
Mr Sci-fi Tabs
Qlero Tabs
Soy Tabs
Vampiro Garces Tabs


Song lyrics



↑ Back to top | Tablatures and chords are parodies/interpretations of the original songs. You may use it for private study, scholarship, research or language learning purposes only
© 2014 AZChords.com Contact us | Privacy policy | DMCA | Add/correct tabs | Request tabs | Top 50 tabs