>
 >
Los Malos De Las Peliculas B

Los Malos De Las Peliculas B Guitar Tabs

Garigoles - Los Malos De Las Peliculas B chords, tabs, tablatures, lyrics

Guitar lessons | Add/correct | Request | Top 50 tabs Artists:  A B C D E F G H I J K L M N O P Q R S T U V W X Y Z 0-9

Los Malos De Las Peliculas B Guitar Tabs – Garigoles

CD, Sheet music, Poster

Do you like Los Malos De Las Peliculas B? Share with your friends now
Tabs
los malos de las peliculas b


garigoles








                                               
e:----------------------------------------------------|
B:----------------------------------------------------|
G:-7-7-7--2-2--4-4-4--2-2--7-7-7--2-2--9--7\6/7\6--2--|
D:-7-7-7--2-2--4-4-4--2-2--7-7-7--2-2--9--7\6/7\6--2--|
A:-5-5-5--0-0--2-2-2--0-0--5-5-5--0-0--7--5\4/5\4--0--|
E:----------------------------------------------------|

   no tu tu tu tu
e:----------------|
B:----------------|
G:-2--------------|
D:-2---2--2-2-2-2-|
A:-0---2--2-2-2-2-|
E:-----0--0-0-0-0-|

                        x3
e:-------------------------|
B:-------------------------|
G:-2--2-2-2-2--------------|
D:-2--2-2-2-2--2----2--2---|
A:-0--0-0-0-0--2--2--2---2-|
E:-------------0-----------|

  verse                                   x2
e:-----------------------------------------|
B:-----------------------------------------|
G:-2-2----------------------2-2--------4-4-|
D:-2-2---------2-2----------2-2--------4-4-|
A:-0-0---------2-2----------0-0--------2-2-|
E:-------------0-0-------------------------|

   gt1                    x2
e:--------------------------|
B:--------------------------|
G:--------------------------|
D:--------------------------|
A:-2---4---7---7-7-7-7-7----|
E:-0---2---5---5-5-5-5-5----|
   gt2                    x2
e:----------------5----5-5--|
B:----------------5----5-5--|
G:-------------7b---7b------|
D:--------------------------|
A:-2---4---7----------------|
E:-0---2---5----------------|

  gt1
e:------------------------------------------------------------|
B:------------------------------------------------------------|
G:------------------------------------------------------------|
D:-4-4-4-4-4-4-4-4--4-----4-----4--9------9------9------9-----|
A:-2-2-2-2-2-2-2-2--2-2-2-2-2-2-2--7--7-7-7--7-7-7--7-7-7-----|
E:------------------------------------------------------------|
  gt2
e:------------------------------------------------------------|
B:------------------------------------------------------------|
G:------------------------------------------------------------|
D:-4-4-4-4-4-4-4-4--4-----4-----4--9------9-------------------|
A:-2-2-2-2-2-2-2-2--2-2-2-2-2-2-2--7--7-7-7-------------------|
E:-------------------------------------------12\--------------|

  somos los malos...
   gt1                                       x4
e:---------------------------------------------|
B:---------------------------------------------|
G:-2-----2-------------------------------------|
D:-2--2--2--9-9-9-----9--6---6--4--4-4-4-4-4-4-|
A:-0--2--0--7-7-7-----7--4-7-4--2--2-2-2-2-2-2-|
E:----0----------------------------------------|
   gt2                                                              x4
e:-----------------------12-----------12-----------12-----------12----|
B:--------------------12----12-----12----12-----12----12-----12----12-|
G:-2-----2---------9------------9------------9------------9-----------|
D:-2--2--2--9-9-9-----------------------------------------------------|
A:-0--2--0--7-7-7-----------------------------------------------------|
E:----0---------------------------------------------------------------|

   no tu tu tu tu
e:----------------|
B:----------------|
G:-2--------------|
D:-2---2--2-2-2-2-|
A:-0---2--2-2-2-2-|
E:-----0--0-0-0-0-|

                        x3
e:-------------------------|
B:-------------------------|
G:-2--2-2-2-2--------------|
D:-2--2-2-2-2--2----2--2---|
A:-0--0-0-0-0--2--2--2---2-|
E:-------------0-----------|

  verse                                   x2
e:-----------------------------------------|
B:-----------------------------------------|
G:-2-2----------------------2-2--------4-4-|
D:-2-2---------2-2----------2-2--------4-4-|
A:-0-0---------2-2----------0-0--------2-2-|
E:-------------0-0-------------------------|

   gt1                    x2
e:--------------------------|
B:--------------------------|
G:--------------------------|
D:--------------------------|
A:-2---4---7---7-7-7-7-7----|
E:-0---2---5---5-5-5-5-5----|
   gt2                    x2
e:----------------5----5-5--|
B:----------------5----5-5--|
G:-------------7b---7b------|
D:--------------------------|
A:-2---4---7----------------|
E:-0---2---5----------------|

  gt1
e:------------------------------------------------------------|
B:------------------------------------------------------------|
G:------------------------------------------------------------|
D:-4-4-4-4-4-4-4-4--4-----4-----4--9------9------9------9-----|
A:-2-2-2-2-2-2-2-2--2-2-2-2-2-2-2--7--7-7-7--7-7-7--7-7-7-----|
E:------------------------------------------------------------|
  gt2
e:------------------------------------------------------------|
B:------------------------------------------------------------|
G:------------------------------------------------------------|
D:-4-4-4-4-4-4-4-4--4-----4-----4--9------9-------------------|
A:-2-2-2-2-2-2-2-2--2-2-2-2-2-2-2--7--7-7-7-------------------|
E:-------------------------------------------12\--------------|

  somos los malos...
   gt1                                       x4
e:---------------------------------------------|
B:---------------------------------------------|
G:-2-----2-------------------------------------|
D:-2--2--2--9-9-9-----9--6---6--4--4-4-4-4-4-4-|
A:-0--2--0--7-7-7-----7--4-7-4--2--2-2-2-2-2-2-|
E:----0----------------------------------------|
   gt2                                                              x4
e:-----------------------12-----------12-----------12-----------12----|
B:--------------------12----12-----12----12-----12----12-----12----12-|
G:-2-----2---------9------------9------------9------------9-----------|
D:-2--2--2--9-9-9-----------------------------------------------------|
A:-0--2--0--7-7-7-----------------------------------------------------|
E:----0---------------------------------------------------------------|

e:-------------------------------------------------------------------------|
B:-------------------------------------------------------------------------|
G:-------------------------------------------------------------------------|
D:-------------------------------------------------------------------------|
A:-----2-----2---2-------4-----4---4------7-----7---7---7------9-----9---9-|
E:-0-0---0-0---0----2-2----2-2---2----5-5---5-5---5---5----7-7---7-7---7---|

  gt1
e:----------------------------------------------------------------------------|
B:----------------------------------------------------------------------------|
G:-----9--------9--------9--------9---------9---------9---------9---------9---|
D:---9---9----9---9----9---9----9---9-----9---9-----9---9-----9---9-----9---9-|
A:-7--------7--------9--------9--------10--------10--------12--------12-------|
E:----------------------------------------------------------------------------|
  gt2
e:-------12------------12----------12-----------12-----------12-----------12------|
B:----12----12------12----12----12----12-----12----12-----12----12-----12----12---|
G:--------------------------------------------------------------------------------|
D:--------------------------------------------------------------------------------|
A:----------------------------9-----------9------------10-----------10------------|
E:-12-----------12----------------------------------------------------------------|

e:-------12------------12----|
B:----12----12------12----12-|
G:---------------------------|
D:---------------------------|
A:-12-----------12-----------|
E:---------------------------|


e:--------------------------------------------------|
B:--------------------------------------------------|
G:------------9-9---11-11---------------------------|
D:-9-9--------7-7---9--9------9-9---11-11--------9--|
A:-7-7--9-9-------------------7-7---9--9---9-9---7--|
E:------7-7--------------------------------7-7------|

  somos los malos...
   gt1                                       x4
e:---------------------------------------------|
B:---------------------------------------------|
G:-2-----2-------------------------------------|
D:-2--2--2--9-9-9-----9--6---6--4--4-4-4-4-4-4-|
A:-0--2--0--7-7-7-----7--4-7-4--2--2-2-2-2-2-2-|
E:----0----------------------------------------|
   gt2                                                              x4
e:-----------------------12-----------12-----------12-----------12----|
B:--------------------12----12-----12----12-----12----12-----12----12-|
G:-2-----2---------9------------9------------9------------9-----------|
D:-2--2--2--9-9-9-----------------------------------------------------|
A:-0--2--0--7-7-7-----------------------------------------------------|
E:----0---------------------------------------------------------------|

e:---------12-----------12-----------12-----------12-----------12-12-|
B:------12----12-----12----12-----12----12-----12----12----12--12-12-|
G:---9------------9------------9------------9------------9-----9--9--|
D:-------------------------------------------------------------------|
A:-------------------------------------------------------------------|
E:-------------------------------------------------------------------|





hillo son mex

4/04/11





Comments


Popular Garigoles tabs & chords
Cantautor Tabs
Dimmu Borgir Tabs
El Fantasma Del Mascusia Tabs
El Hombre De 2 Cabezas Tabs
Fuera De Este Mundo Tabs
Machine Gun Tabs
Mr Sci-fi Tabs
Pirulerman Tabs
Qlero Tabs
Vampiro Garces Tabs


Song lyrics



↑ Back to top | Tablatures and chords are parodies/interpretations of the original songs. You may use it for private study, scholarship, research or language learning purposes only
© 2014 AZChords.com Contact us | Privacy policy | DMCA | Add/correct tabs | Request tabs | Top 50 tabs