>
 >
La Abduccion De Aurora

La Abduccion De Aurora Guitar Tabs

Garigoles - La Abduccion De Aurora chords, tabs, tablatures, lyrics

Guitar lessons | Add/correct | Request | Top 50 tabs Artists:  A B C D E F G H I J K L M N O P Q R S T U V W X Y Z 0-9

La Abduccion De Aurora Guitar Tabs – Garigoles

CD, Sheet music, Poster

Do you like La Abduccion De Aurora? Share with your friends now
Tabs
la abduccion de aurora


garigoles







  seņoras y seņora con ustedes los Luis Migueles del rock  garigoles!
                                               
e:-1h3p1------1------1h3p1------1------------------------------------------|
B:-------3p1--1------------3p1--1--------------1-3--3-3--3----1--1--1-1--1-|
G:------------2--2-2------------2--2-2--2-2--3---3--3-3--3--3----0--0-0--0-|
D:------------3--3-3------------3--3-3--3-3------3--3-3--3-------2--2-2--2-|
A:------------3--3-3------------3--3-3--3-3------1--1-1--1-------3--3-3--3-|
E:------------1--1-1------------1--1-1--1-1--------------------------------|

e:-1h3p1------1------1h3p1------1------------------------------------------|
B:-------3p1--1------------3p1--1--------------1-3--3-3--3----1--1--1-1--1-|
G:------------2--2-2------------2--2-2--2-2--3---3--3-3--3--3----0--0-0--0-|
D:------------3--3-3------------3--3-3--3-3------3--3-3--3-------2--2-2--2-|
A:------------3--3-3------------3--3-3--3-3------1--1-1--1-------3--3-3--3-|
E:------------1--1-1------------1--1-1--1-1--------------------------------|

e:-1-----------------------------------------------------------|
B:-1-----------------------------------------------------------|
G:-2-----------------------------------------------------------|
D:-3-----------------------------------------------------------|
A:-3-----------------------------------------------------------|
E:-1-----------------------------------------------------------|

   verse                              x4
e:-------------------------------------|
B:-------------------------------------|
G:-------------------------------------|
D:-3-3-3-3-3-3-3--3-3-3-3-3--5-5-5-5-5-|
A:-3-3-3-3-3-3-3--1-1-1-1-1--3-3-3-3-3-|
E:-1-1-1-1-1-1-1-----------------------|

  gt1                    x2
e:-------------------------|
B:-------------------------|
G:-------------------------|
D:------------33333--55555-|
A:-333333333--11111--33333-|
E:-111111111---------------|
  gt2                                
e:-8---5--5-8-8-8-6p5------5--5-8-8-6p5-|
B:---6---6-------------8-6---6----------|
G:--------------------------------------|
D:--------------------------------------|
A:--------------------------------------|
E:--------------------------------------|

e:-8---5--5-8-8-8-6p5------5--5-8-8-6p5---|
B:---6---6-------------8-6---6----------6-|
G:----------------------------------------|
D:----------------------------------------|
A:----------------------------------------|
E:----------------------------------------|

                                      x4
e:-------------------------------------|
B:-------------------------------------|
G:-------------------------------------|
D:-3-3-3-3-3-3-3--3-3-3-3-3--5-5-5-5-5-|
A:-3-3-3-3-3-3-3--1-1-1-1-1--3-3-3-3-3-|
E:-1-1-1-1-1-1-1-----------------------|

  aurora aboreal...                         pick slide
e:------------------------------------------------------------|
B:------------------------------------------------------------|
G:------------------------------------------------------------|
D:-7--------------------------5-------------------------------|
A:-5-------------3------------3-------------x\----------------|
E:---------------1--------------------------x\----------------|

                                         x4
e:----------------------------------------|
B:----------------------------------------|
G:----------------------------------------|
D:-7--------------------------5-----------|
A:-5-------------3------------3-----------|
E:---------------1------------------------|

  gt1                                    x2
e:-----------------------------------------|
B:-----------------------------------------|
G:-----------------------------------------|
D:--------------------3-3-3-3-3--5-5-5-5-5-|
A:-3-3-3-3-3-3-3-3-3--1-1-1-1-1--3-3-3-3-3-|
E:-1---1---1---1-1-------------------------|
  gt2                                 x2
e:--------------------------------5-----|
B:---6---6---6-8-6------6---6---6---6---|
G:-5---5---5-------5--5---5---5-------5-|
D:--------------------------------------|
A:--------------------------------------|
E:--------------------------------------|

                                                     x4
e:-----------------------------------------------------|
B:-----------------------------------------------------|
G:-----------------------------------------------------|
D:-8-8-8p7-----8-8-8-9--10--10-10-10-10-10-10-10-10-10-|
A:---------10--6-6-6-7--8---8--8--8--8--8--8--8--8--8--|
E:-----------------------------------------------------|

   verse                              x4
e:-------------------------------------|
B:-------------------------------------|
G:-------------------------------------|
D:-3-3-3-3-3-3-3--3-3-3-3-3--5-5-5-5-5-|
A:-3-3-3-3-3-3-3--1-1-1-1-1--3-3-3-3-3-|
E:-1-1-1-1-1-1-1-----------------------|

  aurora aboreal...                         pick slide
e:------------------------------------------------------------|
B:------------------------------------------------------------|
G:------------------------------------------------------------|
D:-7--------------------------5-------------------------------|
A:-5-------------3------------3-------------x\----------------|
E:---------------1--------------------------x\----------------|

                                         x3
e:----------------------------------------|
B:----------------------------------------|
G:----------------------------------------|
D:-7--------------------------5-----------|
A:-5-------------3------------3-----------|
E:---------------1------------------------|


  gt1                                    x2
e:-----------------------------------------|
B:-----------------------------------------|
G:-----------------------------------------|
D:--------------------3-3-3-3-3--5-5-5-5-5-|
A:-3-3-3-3-3-3-3-3-3--1-1-1-1-1--3-3-3-3-3-|
E:-1---1---1---1-1-------------------------|
  gt2                                 x2
e:--------------------------------5-----|
B:---6---6---6-8-6------6---6---6---6---|
G:-5---5---5-------5--5---5---5-------5-|
D:--------------------------------------|
A:--------------------------------------|
E:--------------------------------------|


pm..........................                      x2
e:-------------------------------------------------|
B:-------------------------------------------------|
G:-------------------------------------------------|
D:----------------------------3-3-3-3-3--5-5-5-5-5-|
A:-3-3-3-3-3-3-3-3-3-3-3-3-3--1-1-1-1-1--3-3-3-3-3-|
E:-1-1-1-1-1-1-1-1-1-1-1-1-1-----------------------|

                                                     x4
e:-----------------------------------------------------|
B:-----------------------------------------------------|
G:-----------------------------------------------------|
D:-8-8-8p7-----8-8-8-9--10--10-10-10-10-10-10-10-10-10-|
A:---------10--6-6-6-7--8---8--8--8--8--8--8--8--8--8--|
E:-----------------------------------------------------|

                                                 x5
e:-------------------------------------------------|
B:-------------------------------------------------|
G:-------------------------------------------------|
D:----------------------------3----------5---------|
A:-3--------------------------1----------3---------|
E:-1-----------------------------------------------|

e:-------------------------------------------------|
B:-------------------------------------------------|
G:-------------------------------------------------|
D:----------------------------3----------5--5-5-5--|
A:-3--------------------------1----------3--3-3-3--|
E:-1-----------------------------------------------|

  gt1                                    x2
e:-----------------------------------------|
B:-----------------------------------------|
G:-----------------------------------------|
D:--------------------3-3-3-3-3--5-5-5-5-5-|
A:-3-3-3-3-3-3-3-3-3--1-1-1-1-1--3-3-3-3-3-|
E:-1---1---1---1-1-------------------------|
  gt2                                 x2
e:--------------------------------5-----|
B:---6---6---6-8-6------6---6---6---6---|
G:-5---5---5-------5--5---5---5-------5-|
D:--------------------------------------|
A:--------------------------------------|
E:--------------------------------------|

e:------------------------------------------------------------|
B:------------------------------------------------------------|
G:------------------------------------------------------------|
D:------------------------------------------------------------|
A:-3----------------------------------------------------------|
E:-1----------------------------------------------------------|



hillo son mex

3/04/11





Comments


Popular Garigoles tabs & chords
Cantautor Tabs
Dimmu Borgir Tabs
El Hombre De 2 Cabezas Tabs
Endrocarditis Bateriana Tabs
Los Malos De Las Peliculas B Tabs
Machine Gun Tabs
Manocero Tabs
Mr Sci-fi Tabs
Pirulerman Tabs
Soy Tabs


Song lyrics



↑ Back to top | Tablatures and chords are parodies/interpretations of the original songs. You may use it for private study, scholarship, research or language learning purposes only
© 2014 AZChords.com Contact us | Privacy policy | DMCA | Add/correct tabs | Request tabs | Top 50 tabs