>
 >
Fuera De Este Mundo

Fuera De Este Mundo Guitar Tabs

Garigoles - Fuera De Este Mundo chords, tabs, tablatures, lyrics

Guitar lessons | Add/correct | Request | Top 50 tabs Artists:  A B C D E F G H I J K L M N O P Q R S T U V W X Y Z 0-9

Fuera De Este Mundo Guitar Tabs – Garigoles

CD, Sheet music, Poster

Do you like Fuera De Este Mundo? Share with your friends now
Tabs
fuera de este mundo


garigoles









e:----------------------------|
B:----0-----------------------|
G:----0-----------------------|
D:-5--5-----------------------|
A:-5--5-----------------------|
E:-0--0-----------------------|

 pm...........................................
e:---------------------------------------------|
B:---------------------------------------------|
G:---------------------------------------------|
D:---------------------------------------------|
A:-2-2-2-2-2-2-2-2-2-2-2-2-2-2-2-2-2-2-2-2-2-2-|
E:-0-0-0-0-0-0-0-0-0-0-0-0-0-0-0-0-0-0-0-0-0-0-|

                             x8
e:----------------------------|
B:----------------------------|
G:----------------------------|
D:----------------------------|
A:-9-9--7-7--6--2-2-2-2-2-2-2-|
E:-7-7--5-5--4--0-0-0-0-0-0-0-|

                     x4
e:--------------------|
B:--------------------|
G:--------------------|
D:--------------------|
A:-2--7-7-7--9--7-7-7-|
E:-0--5-5-5--7--5-5-5-|

e:-------------------------|
B:-------------------------|
G:-------------------------|
D:-------------------------|
A:-2--7-7-7--9-9-9-9-9-9-9-|
E:-0--5-5-5--7-7-7-7-7-7-7-|

e:---------------------------------------------|
B:---------------------------------------------|
G:---------------------------------------------|
D:---------------------------------------------|
A:-2-2-2-2-2-2-2-2-2-2-2-2-2-2-2-2-2-2-2-2-2-2-|
E:-0-0-0-0-0-0-0-0-0-0-0-0-0-0-0-0-0-0-0-0-0-0-|

                             x8
e:----------------------------|
B:----------------------------|
G:----------------------------|
D:----------------------------|
A:-9-9--7-7--6--2-2-2-2-2-2-2-|
E:-7-7--5-5--4--0-0-0-0-0-0-0-|

                     x4
e:--------------------|
B:--------------------|
G:--------------------|
D:--------------------|
A:-2--7-7-7--9--7-7-7-|
E:-0--5-5-5--7--5-5-5-|

e:-------------------------|
B:-------------------------|
G:-------------------------|
D:-------------------------|
A:-2--7-7-7--9-9-9-9-9-9-9-|
E:-0--5-5-5--7-7-7-7-7-7-7-|


e:-----------------------------------|
B:------------9------12--------------|
G:---9-11---9---9--------11-9---11-9-|
D:-9------9-------9-----------9------|
A:-----------------------------------|
E:-----------------------------------|

                                           pick slide
e:------------------------------------------------------------|
B:------------------------------------------------------------|
G:------------------------------------------------------------|
D:-9-----------------------9----------------------------------|
A:-7--11--9--8-8--9--8-8---7---7---2-------x\-----------------|
E:----9---7--7-7--7--7-7-------5---0-------x\-----------------|


e:------------------------------------------------------------|
B:------------------------------------------------------------|
G:------------------------------------------------------------|
D:-9-----------------------9----------------9-----------------|
A:-7--11--9--8-8--9--8-8---7---7---2--------7-----------------|
E:----9---7--7-7--7--7-7-------5---0--------------------------|


e:------------------------------------------------------------|
B:------------------------------------------------------------|
G:------------------------------------------------------------|
D:-------------------------9----------------------------------|
A:----11--9--8-8--9--8-8---7---7---2--------------------------|
E:----9---7--7-7--7--7-7-------5---0--------------------------|

e:------------------------------------------------------------|
B:------------------------------------------------------------|
G:------------------------------------------------------------|
D:-9-----------------------9----------------9-----------------|
A:-7--11--9--8-8--9--8-8---7---7---2--------7-----------------|
E:----9---7--7-7--7--7-7-------5---0--------------------------|

                         x7
e:-------------------------|
B:-------------------------|
G:-------------------------|
D:-------------------------|
A:-9-9--7-7--2-2-2-2-2-2-2-|
E:-7-7--5-5--0-0-0-0-0-0-0-|

                     x4
e:--------------------|
B:--------------------|
G:--------------------|
D:--------------------|
A:-2--7-7-7--9--7-7-7-|
E:-0--5-5-5--7--5-5-5-|

e:----------------------------|
B:----------------------------|
G:----------------------------|
D:----------------------------|
A:-2--7-7-7--9-9-9-9-9-9-9--2-|
E:-0--5-5-5--7-7-7-7-7-7-7--0-|


e:---------------------------------|
B:------------------12-------------|
G:---9-9-9---11p9------11p9---11-9-|
D:-9-------9------9---------9------|
A:---------------------------------|
E:---------------------------------|


                                           pick slide
e:------------------------------------------------------------|
B:------------------------------------------------------------|
G:------------------------------------------------------------|
D:-9-----------------------9----------------------------------|
A:-7--11--9--8-8--9--8-8---7---7---2-------x\-----------------|
E:----9---7--7-7--7--7-7-------5---0-------x\-----------------|


e:------------------------------------------------------------|
B:------------------------------------------------------------|
G:------------------------------------------------------------|
D:-9-----------------------9----------------9-----------------|
A:-7--11--9--8-8--9--8-8---7---7---2--------7-----------------|
E:----9---7--7-7--7--7-7-------5---0--------------------------|


e:------------------------------------------------------------|
B:------------------------------------------------------------|
G:------------------------------------------------------------|
D:-------------------------9----------------------------------|
A:----11--9--8-8--9--8-8---7---7---2--------------------------|
E:----9---7--7-7--7--7-7-------5---0--------------------------|

e:------------------------------------------------------------|
B:------------------------------------------------------------|
G:------------------------------------------------------------|
D:-9-----------------------9----------------9-8--6-4--2--4----|
A:-7--11--9--8-8--9--8-8---7---7---2--------7-6--4-2--0--2----|
E:----9---7--7-7--7--7-7-------5---0--------------------------|

                 x3
e:----------------|
B:----------------|
G:----------------|
D:-9-8--6-4--2--4-|
A:-7-6--4-2--0--2-|
E:----------------|

                                                                  x4
  pm.................................................................
e:--------------------------------------------------------------------|
B:--------------------------------------------------------------------|
G:--------------------------------------------------------------------|
D:--------------------------------------------------------------------|
A:-2-2-2-2-2-2-2-2--7-7-7-7-7-7-7-7--9-9-9-9-9-9-9-9--7-7-7-7-7-7-7-7-|
E:-0-0-0-0-0-0-0-0--5-5-5-5-5-5-5-5--7-7-7-7-7-7-7-7--5-5-5-5-5-5-5-5-|

e:------------------------------------------------------------|
B:------------------------------------------------------------|
G:------------------------------------------------------------|
D:------------------------------------------------------------|
A:-2----------------------------------------------------------|
E:-0----------------------------------------------------------|






hillo son mex

5/04/11





Comments


Popular Garigoles tabs & chords
Cantautor Tabs
Dimmu Borgir Tabs
El Fantasma Del Mascusia Tabs
El Hombre De 2 Cabezas Tabs
La Abduccion De Aurora Tabs
Los Malos De Las Peliculas B Tabs
Pirulerman Tabs
Qlero Tabs
Soy Tabs
Vampiro Garces Tabs


Song lyrics



↑ Back to top | Tablatures and chords are parodies/interpretations of the original songs. You may use it for private study, scholarship, research or language learning purposes only
© 2014 AZChords.com Contact us | Privacy policy | DMCA | Add/correct tabs | Request tabs | Top 50 tabs