» » »

Garigoles, Endrocarditis Bateriana Tabs (ver.1)

Artists:  A B C D E F G H I J K L M N O P Q R S T U V W X Y Z # 

Endrocarditis Bateriana Tabs (ver.1)

Garigoles Tabs
Rating:
0/5 (0 votes)
Endrocarditis Bateriana lessons Tabs too difficult? Try these video lessons and learn fast
                endrocarditis bateriana

garigoles






                                               
e:-------------------------------|
B:-------------------------------|
G:-------------------------------|
D:-8-8----------8-8----------8-8-|
A:-6-6----------6-6----------6-6-|
E:-------------------------------|


  gt1                          x2
e:-------------------------------|
B:-------------------------------|
G:-------------------------------|
D:-8-8---------------------------|
A:-6-6----------8-8--------------|
E:--------------6-6--------------|
  gt2                                             x2
e:--------------------------------------------------|
B:--------------------------------------------------|
G:--------------------------------------------------|
D:-8888888888--55555555555--33333333333--5555555555-|
A:-6666666666--33333333333--11111111111--3333333333-|
E:--------------------------------------------------|


  verse
  si te duele el corazon...    x4
e:-------------------------------|
B:-------------------------------|
G:-------------------------------|
D:-8-8---------------------------|
A:-6-6----------8-8--------------|
E:--------------6-6--------------|

e:------------------------------------------|
B:------------------------------------------|
G:------------------------------------------|
D:----------------------------------3---3---|
A:-3-3-3-3-3--6-6-6-6-6--3-3-3-3-3--1---1---|
E:-1-1-1-1-1--4-4-4-4-4--1-1-1-1-1----1---1-|
                                                  x2
e:--------------------------------------------------|
B:--------------------------------------------------|
G:--------------------------------------------------|
D:-8888888888--55555555555--33333333333--5555555555-|
A:-6666666666--33333333333--11111111111--3333333333-|
E:--------------------------------------------------|

                                                  x4
e:--------------------------------------------------|
B:--------------------------------------------------|
G:--------------------------------------------------|
D:-8888888888--55555555555--33333333333--5555555555-|
A:-6666666666--33333333333--11111111111--3333333333-|
E:--------------------------------------------------|

e:------------------------------------------|
B:------------------------------------------|
G:------------------------------------------|
D:----------------------------------3---3---|
A:-3-3-3-3-3--6-6-6-6-6--3-3-3-3-3--1---1---|
E:-1-1-1-1-1--4-4-4-4-4--1-1-1-1-1----1---1-|

                                                   x4
e:---------------------------------------------------|
B:---------------------------------------------------|
G:---------------------------------------------------|
D:-8888888888--55555555555---------------33333333333-|
A:-6666666666--33333333333--66666666666--11111111111-|
E:--------------------------44444444444--------------|

                                                  x2
e:--------------------------------------------------|
B:--------------------------------------------------|
G:--------------------------------------------------|
D:-8888888888--55555555555--33333333333--5555555555-|
A:-6666666666--33333333333--11111111111--3333333333-|
E:--------------------------------------------------|

                                                  x4
e:--------------------------------------------------|
B:--------------------------------------------------|
G:--------------------------------------------------|
D:-8888888888--55555555555--33333333333--5555555555-|
A:-6666666666--33333333333--11111111111--3333333333-|
E:--------------------------------------------------|

e:------------------------------------------|
B:------------------------------------------|
G:------------------------------------------|
D:----------------------------------3---3---|
A:-3-3-3-3-3--6-6-6-6-6--3-3-3-3-3--1---1---|
E:-1-1-1-1-1--4-4-4-4-4--1-1-1-1-1----1---1-|

                                                   x4
e:---------------------------------------------------|
B:---------------------------------------------------|
G:---------------------------------------------------|
D:-8888888888--55555555555---------------33333333333-|
A:-6666666666--33333333333--66666666666--11111111111-|
E:--------------------------44444444444--------------|

                                             x2
e:---------------------------------------------|
B:---------------------------------------------|
G:---------------------------------------------|
D:-8---8-8-8--5---5-5-5--3---3-3-3---5---5-5-5-|
A:-6---6-6-6--3---3-3-3--1---1-1-1---3---3-3-3-|
E:---------------------------------------------|


                          fdbk
e:---------------------------------------------|
B:---------------------------------------------|
G:---------------------------------------------|
D:-8-----------------(8)-----------------------|
A:-6-----------------(6)-----------------------|
E:---------------------------------------------|

                      x4
e:--------------8/-----|
B:----8/--------8/-----|
G:----8/---------------|
D:-8--8/------8--------|
A:-6----------6--------|
E:---------------------|

e:--------------8-8-8-8-8\-|
B:----8/--------8-8-8-8-8\-|
G:----8/--------8-8-8-8-8\-|
D:-8--8/------8------------|
A:-6----------6------------|
E:-------------------------|

                                                   x12
e:---------------------------------------------------|
B:---------------------------------------------------|
G:---------------------------------------------------|
D:-8888888888--55555555555---------------33333333333-|
A:-6666666666--33333333333--66666666666--11111111111-|
E:--------------------------44444444444--------------|

                                 x4
e:--------3-----------------------|
B:----4-6---6-4---6-6/8-6---6~~~--|
G:-/5---------------------8-------|
D:--------------------------------|
A:--------------------------------|
E:--------------------------------|






hillo son mex

4/04/11
            

comments powered by Disqus
↑ Back to top | Garigoles Tabs for Endrocarditis Bateriana. Lyrics for acoustic guitar and electric guitar. Tablatures and chords are parodies/interpretations of the original songs. You may use it for private study, scholarship, research or language learning purposes only