>
 >
El Hombre De 2 Cabezas

El Hombre De 2 Cabezas Guitar Tabs

Garigoles - El Hombre De 2 Cabezas chords, tabs, tablatures, lyrics

Guitar lessons | Add/correct | Request | Top 50 tabs Artists:  A B C D E F G H I J K L M N O P Q R S T U V W X Y Z 0-9

El Hombre De 2 Cabezas Guitar Tabs – Garigoles

CD, Sheet music, Poster

Do you like El Hombre De 2 Cabezas? Share with your friends now
Tabs
el hombre de 2 cabezas
garigoles





                                               
e:-----------------------------------------------|
B:-10--9-9-9-----9-9-9---10--9-9-9---------------|
G:-9---9-9-9--8--9-9-9---9---9-9-9--10--9--9--9--|
D:-9---9-9-9--9--9-9-9---9---9-9-9--11--11-11-11-|
A:-7---7-7-7--9--7-7-7---7---7-7-7--11--11-11-11-|
E:------------7---------------------9---9--9--9--|

e:-------------|
B:-------------|
G:-------------|
D:-------------|
A:-11--7--9-9--|
E:-9---5--7-7--|

e:--------------------------------------1-2-4-2-1-2-1------------|
B:----------------------------------1/3--------------------------|
G:-2-1---1-2/4-2/4--2/6-4-2-1-2-1--------------------------------|
D:-----2--------------------------2--------------------6--2--4-4-|
A:-----------------------------------------------------4--0--2-2-|
E:---------------------------------------------------------------|


   verse             x3
e:--------------5-5-5-|
B:-9--9-9-9-----5-5-5-|
G:-9--9-9-9--6--6-6-6-|
D:-9--9-9-9--7--7-7-7-|
A:-7--7-7-7--7--7-7-7-|
E:-----------5--5-5-5-|

e:-------------|
B:-------------|
G:-------------|
D:-------------|
A:-11--7--9-9--|
E:-9---5--7-7--|

                    x3
e:--------------5-5-5-|
B:-9--9-9-9-----5-5-5-|
G:-9--9-9-9--6--6-6-6-|
D:-9--9-9-9--7--7-7-7-|
A:-7--7-7-7--7--7-7-7-|
E:-----------5--5-5-5-|

e:-------------|
B:-------------|
G:-------------|
D:-------------|
A:-11--7--9-9--|
E:-9---5--7-7--|

                    x3
e:--------------5-5-5-|
B:-9--9-9-9-----5-5-5-|
G:-9--9-9-9--6--6-6-6-|
D:-9--9-9-9--7--7-7-7-|
A:-7--7-7-7--7--7-7-7-|
E:-----------5--5-5-5-|

e:-------------|
B:-------------|
G:-------------|
D:-------------|
A:-11--7--9-9--|
E:-9---5--7-7--|

                   x3
e:------------------|
B:-9----------------|
G:-9----8--10-10-10-|
D:-9----9--11-11-11-|
A:-7----9--11-11-11-|
E:------7--9--9--9--|


e:---------------------------9---------------|
B:-----9-9-9------9-9-9--------9-------------|
G:-----9-9-9------9-9-9----------9-----------|
D:-----9-9-9------9-9-9-------------7--9-9-9-|
A:-2-----------9---------11---------7--9-9-9-|
E:-0-----------7---------9----------5--7-7-7-|

e:--------------------------4-4-4-----2-2-2-|
B:-----9-9-9------9-9-9-----5-5-5-----2-2-2-|
G:-----9-9-9------9-9-9-----4-4-4-----2-2-2-|
D:-----9-9-9------9-9-9---------------------|
A:-2-----------9---------6---------4--------|
E:-0-----------7---------4---------2--------|

  gt1
e:---------------------------------------|
B:---------------------------------------|
G:---------------------------------------|
D:-----4---6---2---4-4-4-------4---------|
A:-2---2---4---0---2-2-2---2---2---6---4-|
E:-0-----------------------0-------4---2-|
  gt2
e:-4---4---4---4---4-----5---5----7---7---|
B:---2---2---2---2---2-----3---3----5---5-|
G:----------------------------------------|
D:----------------------------------------|
A:----------------------------------------|
E:----------------------------------------|

  verse             x3
e:--------------5-5-5-|
B:-9--9-9-9-----5-5-5-|
G:-9--9-9-9--6--6-6-6-|
D:-9--9-9-9--7--7-7-7-|
A:-7--7-7-7--7--7-7-7-|
E:-----------5--5-5-5-|

e:-------------|
B:-------------|
G:-------------|
D:-------------|
A:-11--7--9-9--|
E:-9---5--7-7--|

                    x3
e:--------------5-5-5-|
B:-9--9-9-9-----5-5-5-|
G:-9--9-9-9--6--6-6-6-|
D:-9--9-9-9--7--7-7-7-|
A:-7--7-7-7--7--7-7-7-|
E:-----------5--5-5-5-|

e:-------------|
B:-------------|
G:-------------|
D:-------------|
A:-11--7--9-9--|
E:-9---5--7-7--|

                  x3
e:------------------|
B:-9----------------|
G:-9----8--10-10-10-|
D:-9----9--11-11-11-|
A:-7----9--11-11-11-|
E:------7--9--9--9--|


e:--------------------------|
B:--------------------------|
G:-1------------------------|
D:-2-----9-9------11--------|
A:-2-----7-7------9----7--9-|
E:-0-------------------5--7-|

e:--------------------------|
B:--------------------------|
G:-1------------------------|
D:-2-----9-9----------------|
A:-2-----7-7------6--4------|
E:-0--------------4--2------|

e:--------------------------|
B:--------------------------|
G:-1------------------------|
D:-2-----9-9------11--------|
A:-2-----7-7------9----7--9-|
E:-0-------------------5--7-|

e:--------------------------|
B:--------------------------|
G:-1------------------------|
D:-2-----9-9----------------|
A:-2-----7-7------6--4------|
E:-0--------------4--2------|

                                        x2
e:------0---------0---------0---------0---|
B:--------0---------0---------0---------0-|
G:----------------------------------------|
D:---9---------9---------6----------------|
A:-7---------9---------4-----------7------|
E:-------------------------------5--------|

e:------------------------------------------------------------------------|
B:------------------------------------------------------------------------|
G:------------------------------------------------------------------------|
D:-9-9-----9-9------9-9--------9-9---------9-9----------9-9---9-9-----9-9-|
A:-7-7-----7-7------7-7--------7-7---------7-7----------7-7---7-7-----7-7-|
E:------------------------------------------------------------------------|


e:---------------------------------------|
B:---------------------------------------|
G:---------------------------------------|
D:-----4---6---2---4-4-4-------4---------|
A:-2---2---4---0---2-2-2---2---2---6---4-|
E:-0-----------------------0-------4---2-|

  gt1
e:---------------------------------------|
B:---------------------------------------|
G:---------------------------------------|
D:-----4---6---2---4-4-4-------4---------|
A:-2---2---4---0---2-2-2---2---2---6---4-|
E:-0-----------------------0-------4---2-|
  gt2
e:-4---4---4---4---4-----5---5----7---7---|
B:---2---2---2---2---2-----3---3----5---5-|
G:----------------------------------------|
D:----------------------------------------|
A:----------------------------------------|
E:----------------------------------------|


e:---------------------------------------------------|
B:-----------------------------------------10-10-9-9-|
G:-----------------------------------------9--9--9-9-|
D:-----------------------------------------9--9--9-9-|
A:-2---------------------------------------7--7--7-7-|
E:-0----------------------3/12-----3/12--------------|


e:---------|
B:---------|
G:-6--8-8--|
D:-7--9-9--|
A:-7--9-9--|
E:-5--7-7--|

                      x2
e:---------------------|
B:-10-10-9-9-----------|
G:-9--9--9-9--6-6--8-8-|
D:-9--9--9-9--7-7--9-9-|
A:-7--7--7-7--7-7--9-9-|
E:------------5-5--7-7-|

e:------------------------------------------------------------|
B:-9----------------------------------------------------------|
G:-9----------------------------------------------------------|
D:-9----------------------------------------------------------|
A:-7----------------------------------------------------------|
E:------------------------------------------------------------|





hillo son mex

6/04/11





Comments


Popular Garigoles tabs & chords
Dimmu Borgir Tabs
El Fantasma Del Mascusia Tabs
Endrocarditis Bateriana Tabs
La Abduccion De Aurora Tabs
Los Malos De Las Peliculas B Tabs
Machine Gun Tabs
Manocero Tabs
Mr Sci-fi Tabs
Pirulerman Tabs
Qlero Tabs


Song lyrics



↑ Back to top | Tablatures and chords are parodies/interpretations of the original songs. You may use it for private study, scholarship, research or language learning purposes only
© 2014 AZChords.com Contact us | Privacy policy | DMCA | Add/correct tabs | Request tabs | Top 50 tabs