>
 >
El Fantasma Del Mascusia

El Fantasma Del Mascusia Guitar Tabs

Garigoles - El Fantasma Del Mascusia chords, tabs, tablatures, lyrics

Guitar lessons | Add/correct | Request | Top 50 tabs Artists:  A B C D E F G H I J K L M N O P Q R S T U V W X Y Z 0-9

El Fantasma Del Mascusia Guitar Tabs – Garigoles

CD, Sheet music, Poster

Do you like El Fantasma Del Mascusia? Share with your friends now
Tabs
el fantasma del mascusia


garigoles








                   x2                                   
e:---------------5\-|
B:---------------5\-|
G:------------------|
D:-2----1-2--2------|
A:-0-4--0-0--0------|
E:------------------|

e:--------------------|
B:--------------------|
G:--------------------|
D:-9-9--7-7--9-9--7-7-|
A:-7-7--5-5--7-7--5-5-|
E:--------------------|

                   x2                                   
e:---------------5\-|
B:---------------5\-|
G:------------------|
D:-2----1-2--2------|
A:-0-4--0-0--0------|
E:------------------|

e:--------------------|
B:--------------------|
G:--------------------|
D:-9-9--7-7--9-9--7-7-|
A:-7-7--5-5--7-7--5-5-|
E:--------------------|

  verse
   yo no quisiera recordar lo que tuve que aguantar...
  pm............................................................
e:---------------------------------------------------------------|
B:---------------------------------------------------------------|
G:---------------------------------------------------------------|
D:-2-2-2-2-2-2-2-2-2-2-2-2--7-7-7-7-7-7-7-7-7--9-9-9-9-9-9-9-9-9-|
A:-0-0-0-0-0-0-0-0-0-0-0-0--5-5-5-5-5-5-5-5-5--7-7-7-7-7-7-7-7-7-|
E:---------------------------------------------------------------|

  pm...........................................
e:---------------------------------------------------------------|
B:---------------------------------------------------------------|
G:---------------------------------------------------------------|
D:-2-2-2-2-2-2-2-2-2-2-2-2--7-7-7-7-7-7-7-7-7--9-9-9-9-9-9-9-9-9-|
A:-0-0-0-0-0-0-0-0-0-0-0-0--5-5-5-5-5-5-5-5-5--7-7-7-7-7-7-7-7-7-|
E:---------------------------------------------------------------|

                                      x2
e:--------------------------------------|
B:--------------------------------------|
G:--------------------------------------|
D:-----------------7-7-7-7-7--9-9-9-9-9-|
A:-7-7-7-7-77-7-7--5-5-5-5-5--7-7-7-7-7-|
E:-5-4-5-4-54-5-5-----------------------|

  aqui   
e:---|
B:---|
G:---|
D:---|
A:-7-|
E:-5-|

                   x2                                   
e:---------------5\-|
B:---------------5\-|
G:------------------|
D:-2----1-2--2------|
A:-0-4--0-0--0------|
E:------------------|

e:--------------------|
B:--------------------|
G:--------------------|
D:-9-9--7-7--9-9--7-7-|
A:-7-7--5-5--7-7--5-5-|
E:--------------------|

                   x2                                   
e:---------------5\-|
B:---------------5\-|
G:------------------|
D:-2----1-2--2------|
A:-0-4--0-0--0------|
E:------------------|

e:--------------------|
B:--------------------|
G:--------------------|
D:-9-9--7-7--9-9--7-7-|
A:-7-7--5-5--7-7--5-5-|
E:--------------------|

  verse
  pm............................................................
e:---------------------------------------------------------------|
B:---------------------------------------------------------------|
G:---------------------------------------------------------------|
D:-2-2-2-2-2-2-2-2-2-2-2-2--7-7-7-7-7-7-7-7-7--9-9-9-9-9-9-9-9-9-|
A:-0-0-0-0-0-0-0-0-0-0-0-0--5-5-5-5-5-5-5-5-5--7-7-7-7-7-7-7-7-7-|
E:---------------------------------------------------------------|

  pm...........................................
e:---------------------------------------------------------------|
B:---------------------------------------------------------------|
G:---------------------------------------------------------------|
D:-2-2-2-2-2-2-2-2-2-2-2-2--7-7-7-7-7-7-7-7-7--9-9-9-9-9-9-9-9-9-|
A:-0-0-0-0-0-0-0-0-0-0-0-0--5-5-5-5-5-5-5-5-5--7-7-7-7-7-7-7-7-7-|
E:---------------------------------------------------------------|

                                      x2
e:--------------------------------------|
B:--------------------------------------|
G:--------------------------------------|
D:-----------------7-7-7-7-7--9-9-9-9-9-|
A:-7-7-7-7-77-7-7--5-5-5-5-5--7-7-7-7-7-|
E:-5-4-5-4-54-5-5-----------------------|

  aqui   
e:---|
B:---|
G:---|
D:---|
A:-7-|
E:-5-|

  chorus                    x7                  
e:----------------------------|
B:----------------------------|
G:----------------------------|
D:-2-------6----------------7-|
A:-0-------4-------4--------5-|
E:-----------------2----------|

  aqui   
e:---|
B:---|
G:---|
D:---|
A:-7-|
E:-5-|


e:------------------------|
B:------------------------|
G:------------------------|
D:-9-9--7-7--6-6--4-4--2--|
A:-7-7--5-5--4-4--2-2--0--|
E:------------------------|

e:-----------------------------------------------------------------------------|
B:------2-2-3-2-------------------------2h3-3-3-2------------------------------|
G:-2--4----------2--4--1h2-2-2-1---2--4------------1h2-2-2--1h2-2-2--1-2-2-2-1-|
D:-----------------------------------------------------------------------------|
A:-----------------------------------------------------------------------------|
E:-----------------------------------------------------------------------------|

                                       x4
e:-9----9--9---9----9--9---9----9--9---9-|
B:-9h10-10-10--9h10-10-10--9h10-10-10--9-|
G:---------------------------------------|
D:---------------------------------------|
A:---------------------------------------|
E:---------------------------------------|

  verse
  pm............................................................
e:---------------------------------------------------------------|
B:---------------------------------------------------------------|
G:---------------------------------------------------------------|
D:-2-2-2-2-2-2-2-2-2-2-2-2--7-7-7-7-7-7-7-7-7--9-9-9-9-9-9-9-9-9-|
A:-0-0-0-0-0-0-0-0-0-0-0-0--5-5-5-5-5-5-5-5-5--7-7-7-7-7-7-7-7-7-|
E:---------------------------------------------------------------|

  pm...........................................
e:---------------------------------------------------------------|
B:---------------------------------------------------------------|
G:---------------------------------------------------------------|
D:-2-2-2-2-2-2-2-2-2-2-2-2--7-7-7-7-7-7-7-7-7--9-9-9-9-9-9-9-9-9-|
A:-0-0-0-0-0-0-0-0-0-0-0-0--5-5-5-5-5-5-5-5-5--7-7-7-7-7-7-7-7-7-|
E:---------------------------------------------------------------|

                                      x2
e:--------------------------------------|
B:--------------------------------------|
G:--------------------------------------|
D:-----------------7-7-7-7-7--9-9-9-9-9-|
A:-7-7-7-7-77-7-7--5-5-5-5-5--7-7-7-7-7-|
E:-5-4-5-4-54-5-5-----------------------|

  aqui   
e:---|
B:---|
G:---|
D:---|
A:-7-|
E:-5-|

e:---------------------------------------|
B:---------------------------------------|
G:---------------------------------------|
D:-7777777777777777777777777777777777777-|
A:-7777777777777777777777777777777777777-|
E:-5555555555555555555555555555555555555-|

   gt1
e:------------------------|
B:--------7-7--9-9--------|
G:--------7-7--9-9--------|
D:-7-7----7-7--9-9--------|
A:-7-7--5-5-5--7-7--------|
E:-5-5--------------------|
   gt2
e:------------------------|
B:------------------------|
G:------------------------|
D:-7-7--7-7-4-7---9-9-6-9-|
A:-7-7--5-5---5---7-7---7-|
E:-5-5--------------------|


e:---------------------------------------------------------|
B:---------------------------------------------------------|
G:---------------------------------------------------------|
D:-7-777777777--7-9-7--------------------------------------|
A:-7-777777777--------7NH-7NH-7NH-7NH-7NH-7NH-7NH-7NH-7NH--|
E:-5-555555555---------------------------------------------|






hillo son mex

3/04/11





Comments


Popular Garigoles tabs & chords
Cantautor Tabs
El Hombre De 2 Cabezas Tabs
Endrocarditis Bateriana Tabs
Fuera De Este Mundo Tabs
La Abduccion De Aurora Tabs
Los Malos De Las Peliculas B Tabs
Manocero Tabs
Mr Sci-fi Tabs
Soy Tabs
Vampiro Garces Tabs


Song lyrics



↑ Back to top | Tablatures and chords are parodies/interpretations of the original songs. You may use it for private study, scholarship, research or language learning purposes only
© 2014 AZChords.com Contact us | Privacy policy | DMCA | Add/correct tabs | Request tabs | Top 50 tabs