» » »

Cantautor Tabs (ver.1)

Artists:  A B C D E F G H I J K L M N O P Q R S T U V W X Y Z # 

Cantautor Tabs (ver.1)

Garigoles
Rating:
0/5 (0 votes)

Hard to play? Try these video lessons and learn fast.
                cantautor


garigoles








                              x8                                          
e:-----8--8--8--8---------------|
B:-----8--8--8--8------10-10-10-|
G:-----9--9--9--9---10-10-10-10-|
D:-----10-10-10-10--10-10-10-10-|
A:-10--10-10-10-10--8--8--8--8--|
E:-8---8--8--8--8---------------|

    cantautor!!                     x2                
e:-----8--8--8--8--8------------------|
B:-----8--8--8--8--8------10-10-10-10-|
G:-----9--9--9--9--9---10-10-10-10-10-|
D:-----10-10-10-10-10--10-10-10-10-10-|
A:-10--10-10-10-10-10--8--8--8--8--8--|
E:-8---8--8--8--8--8------------------|

                              x4                                          
e:-----8--8--8--8---------------|
B:-----8--8--8--8------10-10-10-|
G:-----9--9--9--9---10-10-10-10-|
D:-----10-10-10-10--10-10-10-10-|
A:-10--10-10-10-10--8--8--8--8--|
E:-8---8--8--8--8---------------|


e:--8--8---|
B:--8--8---|
G:--9--9---|
D:--10-10--|
A:--10-10--|
E:--8--8---|

                              x6                                          
e:-----8--8--8--8---------------|
B:-----8--8--8--8------10-10-10-|
G:-----9--9--9--9---10-10-10-10-|
D:-----10-10-10-10--10-10-10-10-|
A:-10--10-10-10-10--8--8--8--8--|
E:-8---8--8--8--8---------------|

    cantautor!!                     x4
e:-----8--8--8--8--8------------------|
B:-----8--8--8--8--8------10-10-10-10-|
G:-----9--9--9--9--9---10-10-10-10-10-|
D:-----10-10-10-10-10--10-10-10-10-10-|
A:-10--10-10-10-10-10--8--8--8--8--8--|
E:-8---8--8--8--8--8------------------|

  que sabe esta raza... x2
e:------------------------|
B:------------------------|
G:-5----------------------|
D:-5--------3--------5----|
A:-3--------3--------5----|
E:----------1--------3----|

e:------------------------------------------|
B:-5-5-5-5-5------------------------3-1---1-|
G:-5-5-5-5-5--2-2-2-2-2--4-4-4-4-4------4---|
D:-5-5-5-5-5--3-3-3-3-3--5-5-5-5-5----------|
A:-3-3-3-3-3--3-3-3-3-3--5-5-5-5-5----------|
E:------------1-1-1-1-1--3-3-3-3-3----------|

                                          x3
e:------------1-1-1-1-1--3-3-3-3-3----------|
B:-5-5-5-5-5--1-1-1-1-1--3-3-3-3-3--3-1---1-|
G:-5-5-5-5-5--2-2-2-2-2--4-4-4-4-4------4---|
D:-5-5-5-5-5--3-3-3-3-3--5-5-5-5-5----------|
A:-3-3-3-3-3--3-3-3-3-3--5-5-5-5-5----------|
E:------------1-1-1-1-1--3-3-3-3-3----------|

e:------------------------------------------------------------|
B:-5----------------------------------------------------------|
G:-5----------------------------------------------------------|
D:-5----------------------------------------------------------|
A:-3----------------------------------------------------------|
E:------------------------------------------------------------|

  escuchen
                              x6                                          
e:-----8--8--8--8---------------|
B:-----8--8--8--8------10-10-10-|
G:-----9--9--9--9---10-10-10-10-|
D:-----10-10-10-10--10-10-10-10-|
A:-10--10-10-10-10--8--8--8--8--|
E:-8---8--8--8--8---------------|

    cantautor!!                     x4
e:-----8--8--8--8--8------------------|
B:-----8--8--8--8--8------10-10-10-10-|
G:-----9--9--9--9--9---10-10-10-10-10-|
D:-----10-10-10-10-10--10-10-10-10-10-|
A:-10--10-10-10-10-10--8--8--8--8--8--|
E:-8---8--8--8--8--8------------------|

                              x4                                          
e:-----8--8--8--8---------------|
B:-----8--8--8--8------10-10-10-|
G:-----9--9--9--9---10-10-10-10-|
D:-----10-10-10-10--10-10-10-10-|
A:-10--10-10-10-10--8--8--8--8--|
E:-8---8--8--8--8---------------|


e:--8--8---|
B:--8--8---|
G:--9--9---|
D:--10-10--|
A:--10-10--|
E:--8--8---|

                              x9                                          
e:-----8--8--8--8---------------|
B:-----8--8--8--8------10-10-10-|
G:-----9--9--9--9---10-10-10-10-|
D:-----10-10-10-10--10-10-10-10-|
A:-10--10-10-10-10--8--8--8--8--|
E:-8---8--8--8--8---------------|

    cantautor!!                     x4
e:-----8--8--8--8--8------------------|
B:-----8--8--8--8--8------10-10-10-10-|
G:-----9--9--9--9--9---10-10-10-10-10-|
D:-----10-10-10-10-10--10-10-10-10-10-|
A:-10--10-10-10-10-10--8--8--8--8--8--|
E:-8---8--8--8--8--8------------------|

  que sabe esta raza... x2
e:------------------------|
B:------------------------|
G:-5----------------------|
D:-5--------3--------5----|
A:-3--------3--------5----|
E:----------1--------3----|

   oh oh oh oh
e:------------------------------------------|
B:-5-5-5-5-5------------------------3-1---1-|
G:-5-5-5-5-5--2-2-2-2-2--4-4-4-4-4------4---|
D:-5-5-5-5-5--3-3-3-3-3--5-5-5-5-5----------|
A:-3-3-3-3-3--3-3-3-3-3--5-5-5-5-5----------|
E:------------1-1-1-1-1--3-3-3-3-3----------|

                                          x3
e:------------1-1-1-1-1--3-3-3-3-3----------|
B:-5-5-5-5-5--1-1-1-1-1--3-3-3-3-3--3-1---1-|
G:-5-5-5-5-5--2-2-2-2-2--4-4-4-4-4------4---|
D:-5-5-5-5-5--3-3-3-3-3--5-5-5-5-5----------|
A:-3-3-3-3-3--3-3-3-3-3--5-5-5-5-5----------|
E:------------1-1-1-1-1--3-3-3-3-3----------|

e:------------------------------------------------------------|
B:-5----------------------------------------------------------|
G:-5----------------------------------------------------------|
D:-5----------------------------------------------------------|
A:-3----------------------------------------------------------|
E:------------------------------------------------------------|

                             x6
e:------------------------------|
B:------------------------------|
G:-5---5--5--10-10-10--12-12-12-|
D:-5---5--5--10-10-10--12-12-12-|
A:-3-0-3--3--8--8--8---10-10-10-|
E:------------------------------|

e:------------------------------------------------------------|
B:-5----------------------------------------------------------|
G:-5----------------------------------------------------------|
D:-5----------------------------------------------------------|
A:-3----------------------------------------------------------|
E:------------------------------------------------------------|





hillo son mex

4/04/11
            
Hard to play? Try these video lessons and learn fast. | Correct




comments powered by Disqus
↑ Back to top | Tablatures and chords are parodies/interpretations of the original songs. You may use it for private study, scholarship, research or language learning purposes only