>
 >
Tomorrows Gone

Tomorrows Gone Guitar Tabs

Gardenian - Tomorrows Gone chords, tabs, tablatures, lyrics

Guitar lessons | Add/correct | Request | Top 50 tabs Artists:  A B C D E F G H I J K L M N O P Q R S T U V W X Y Z 0-9

Tomorrows Gone Guitar Tabs – Gardenian

CD, Sheet music, Poster

Do you like Tomorrows Gone? Share with your friends now
Tabs
                        GARDENIAN - TOMORROW'S GONE
                         From the Album SOULBURNER
                       Copyright 1999 NUCLEAR BLAST

                          Version 1.0 - JAN '02


For Questions, Comments, Newest Version, or Corrections contact


.  - palm mute                  /  - slide up to
\  - slide down to              ~  - vibrato             
h  - hammer on                  b  - bend 
p  - pull off                   Suffixes for bend    
ph - pinch harmonic             f - full bend    h - half bend
*  - see comment                r - release      t - tap bend
X  - percussion mute            ~ - vibrato bend
@  - slight palm mute           () - ghost note, sustained note

Tune Gtr to C

~ T O M O R R O W ' S  G O N E ~

Riff A (clean - let ring)
|-------7--------------------------------------------|
|----------7---------7-------------7--------7--------|
|----------------------------------------------------|Gtr 
|----9------------9-------------9--------9-----9-----| I
|-------------9---------9---7---------------------7--|
|-7-----------------------------------7--------------|
|         
|                                         3tx                  
|-------7--------------------------0--(0)----|
|----------7---------7-----------------------|
|----------------------------------12-(12)---|Gtr 
|----9------------9-------------9------------| I
|-------------9---------9---7------10-(10)---|
|-7--------------------------------0--(0)----|


Volume swell (electrics)


Riff B
|-------------------------------------------------------------|
|-5-555-10-101010-7-777-8-888-5-5-555-10-101010-7-777-8-------|
|-4-444-11-111111-7-777-9-999-4-4-444-11-111111-7-777-9-------|Gtr
|-4-444-11-111111-7-777-9-999-4-4-444-11-111111-7-777-9-9-9-9-| I
|-2-222-9--9-9-9--5-555-7-777-2-2-222-9--9-9-9--5-555-7-7-7-7-|
|-------------------------------------------------------------|
|                                                       . . . 
|   
|
|-------------------------------------------------------------|
|-------------------------------------------------------------|
|-------11-111111-7-777-9-999---------11-111111-7-777-9-------|Gtr 
|-9-999-----------------------9-9-999-------------------------| II
|-------9--9-9-9--5-555-7-777---------9--9-9-9--5-555-7-7-7-7-|
|-7-777-----------------------7-7-777-------------------------|
|                                                       . . .
|
|
|-------------------------------------------------------------|
|-5-555-10-101010-7-777-8-888-5-5-555-10-101010-7-777---------|
|-4-444-11-111111-7-777-9-999-4-4-444-11-111111-7-777-9-(9)---|Gtr
|-4-444-11-111111-7-777-9-999-4-4-444-11-111111-7-777-9-(9)---| I
|-2-222-9--9-9-9--5-555-7-777-2-2-222-9--9-9-9--5-555-7-(7)---|
|-----------------------------------------------------0-(0)---|                                                      
|   
|
|-------------------------------------------------------------|
|-------------------------------------------------------------|
|-------11-111111-7-777-9-999---------11-111111-7-777-9-(9)---|Gtr 
|-9-999-----------------------9-9-999-------------------------| II
|-------9--9-9-9--5-555-7-777---------9--9-9-9--5-555-7-(7)---|
|-7-777-----------------------7-7-777-------------------------|
                                                      


Riff B 1tx
Riff A 3tx
                                                                  

Volume swell (electrics)


Riff C (chorus)
|----------------------------------------------------|
|-5---5-5-5---10--10-10-10---7---7-7-7---8---8-8-8---|
|-4---4-4-4---11--11-11-11---7---7-7-7---9---9-9-9---|Gtr
|-4---4-4-4---11--11-11-11---7---7-7-7---9---9-9-9---| I
|-2---2-2-2---9---9--9--9----5---5-5-5---7---7-7-7---|
|----------------------------------------------------|
|
|
|-------------------------------------------------|
|-------------10---8------8---7-------7-----------|
|-9---7-----------------------------------9-------|Gtr
|-------------------------------------------------| II
|-------------------------------------------------|
|-------------------------------------------------|
|
|
|-12--10------10--9-------9-----------------------|
|-----------------------------12------10----------|
|-----------------------------------------12------|Gtr
|-------------------------------------------------|III
|-------------------------------------------------|
|-------------------------------------------------|
|
|
|-----------------------------------------------------|
|-5-5-5-5-5---10--10-10-10---7---7-7-7---8---8--8--8--|
|-4-4-4-4-4---11--11-11-11---7---7-7-7---9---9--9--9--|Gtr
|-4-4-4-4-4---11--11-11-11---7---7-7-7---9---9--9--9--| I
|-2-2-2-2-2---9---9--9--9----5---5-5-5---7---7--7--7--|
|-----------------------------------------------------|
|
|
|------------------------------------------------------|
|-------------10---8------8---7-------7----------------|
|-9---7-----------------------------------9---9--9--9--|Gtr
|------------------------------------------------------| II
|------------------------------------------------------|
|------------------------------------------------------|
|
|                            
|-12--10------10--9-------9----------------------------|
|-----------------------------12------10---------------|
|-----------------------------------------12--12-12-12-|Gtr
|------------------------------------------------------|III
|------------------------------------------------------|
|------------------------------------------------------|


Riff C 1tx
Fill


Riff D
|-------------------------------------------------|
|-------------------------------------------------|
|-------------------------------------------------|Gtr
|----------11-11-11-11-7--7--7--7--9--9--9--9--9--| I
|-9--9--9--9--9--9--9--5--5--5--5--7--7--7--7--7--|
|-7--7--7-----------------------------------------|
|    .  .     .  .  .     .  .  .     .  .  .  .
|
|
|-7--------9------------7-----------7--------------|
|-7--------10-----------7-----------8--------------|
|-7--------11-----------7-----------9--------------|Gtr
|-9--------11-----------7-----------9--------------| II
|-9--------9---9--9--9--5--5--5--5--7--7--7--7--7--|
|-7--7--7------------------------------------------|
|    .  .      .  .  .     .  .  .     .  .  .  .
|
|
|-------------------------------------------------|
|-------------------------------------------------|
|-------------------------------------------------|Gtr
|----------11-11-11-11-7--7--7--7--9--9--9--9999--| I
|-9--9--9--9--9--9--9--5--5--5--5--7--7--7--7777--|
|-7--7--7-----------------------------------------|
|    .  .     .  .  .     .  .  .     .  .  
|
|
|-7--------9------------7-----------7--------------|
|-7--------10-----------7-----------8--------------|
|-7--------11-----------7-----------9--------------|Gtr
|-9--------11-----------7-----------9--------9999--| II
|-9--------9---9--9--9--5--5--5--5--7--7--7--7777--|
|-7--7--7------------------------------------------|
     .  .      .  .  .     .  .  .     .  .  


Riff D 3tx


Riff D.1
|-------------------------------------------------|
|-------------------------------------------------|
|-------------------------------------------------|Gtr
|----------11-11-11-11-7--7--7--7--9--9--9--9--9--| I
|-9--9--9--9--9--9--9--5--5--5--5--7--7--7--7--7--|
|-7--7--7-----------------------------------------|
|
|
|-7--7--7--9---9--9--9--7--7--7--7--7--7--7--7--7--|
|-7--7--7--10--10-10-10-7--7--7--7--8--8--8--8--8--|
|-7--7--7--11--11-11-11-7--7--7--7--9--9--9--9--9--|Gtr
|-9--9--9--11--11-11-11-7--7--7--7--9--9--9--9--9--| II
|-9--9--9--9---9--9--9--5--5--5--5--7--7--7--7--7--|
|-7--7--7------------------------------------------|
     

Riff C 1tx


Riff E         2tx                     2tx                             2tx
|-----------------|---------|-------------|-------------|-----------------|
|-----------------|---------|-------------|-------------|-----------------|
|-----------------|---------|-------------|-------------|-----------------|Gtr
|-4-4-4-4-4-4-4-4-|-7-7-7-7-|-9-9-9-9-9-9-|-7-7-7-7-7-7-|-4-4-4-4-4-4-4-4-| I
|-2-2-2-2-2-2-2-2-|-5-5-5-5-|-7-7-7-7-7-7-|-7-7-7-7-7-7-|-2-2-2-2-2-2-2-2-|
|-----------------|---------|-------------|-------------|-----------------|
| . . . . . . . .   . . . .   . . . . . .   . . . . . .   . . . . . . . . 
|
|
|              2tx                     2tx                             2tx
|-----------------|---------|-------------|-------------|-----------------|
|-----------------|---------|-------------|-------------|-----------------|
|-----------------|---------|-------------|-------------|-----------------|Gtr
|-4-4-4-4-4-4-4-4-|-7-7-7-7-|-9-9-9-9-9-9-|-7-7-7-7-7-7-|-4-4-4-4-4-4-4-4-| II
|-2-2-2-2-2-2-2-2-|-5-5-5-5-|-7-7-7-7-7-7-|-7-7-7-7-7-7-|-2-2-2-2-2-2-2-2-|
|-----------------|---------|-------------|-------------|-----------------|
| . . . . . . . .   . . . .   . . . . . .   . . . . . .   . . . . . . . . 
|
|
|                    2tx
|---------|-------------|---------------------|
|---------|-------------|---------------------|
|---------|-------------|---------------------|Gtr
|-7-7-7-7-|-9-9-9-9-9-9-|-12-12-12-12-9-9-9-9-| I
|-5-5-5-5-|-7-7-7-7-7-7-|-10-10-10-10-7-7-7-7-|
|---------|-------------|---------------------|
| . . . . . . . . . . .    .  .  . . . . .
|
|                    2tx
|---------|-------------|---------------------|
|---------|-------------|---------------------|
|---------|-------------|---------------------|Gtr
|-7-7-7-7-|-9-9-9-9-9-9-|----12-12-12---9-9-9-| II
|-5-5-5-5-|-7-7-7-7-7-7-|-10----------7-------|
|---------|-------------|---------------------|
  . . . .   . . . . . .  


Riff E 1tx


Riff F
|-----------------------------------------------------------------------|
|-----------------------------------------------------------------------|
|-----------------------------------------------------------------------|Gtr
|-----------------------------------------------------------------------| I
|------10----9-----10------10----9-----10------10----9-----10-------12--|
|-8-8-----8-----8-----8-8-----8-----8-----7-7-----7-----7-----10-10-----|
| . .     .     .     . .     .     .     . .     .     .      .  .
|
|
|-----------------------------------------------------------------------|
|-----------------------------------------------------------------------|
|-----------------------------------------------------------------------|Gtr
|------9-----7-----9-------9-----7-----9-------9-----7-----9--------10--| II
|-----------------------------------------------------------------------|
|-8-8-----8-----8-----8-8-----8-----8-----7-7-----7-----7-----10-10-----|
| . .     .     .     . .     .     .     . .     .     .      .  .
|
|
|-----------------------------------------------------------------------|
|-----------------------------------------------------------------------|
|-----------------------------------------------------------------------|Gtr
|-----------------------------------------------------------------------| I
|----10----12-------10----9-----10------10----9-----10------10----9-----|
|-10----10-----8-8-----8-----8-----8-8-----8-----8-----7-7-----7-----7--|
|  .     .     . .     .     .     . .     .     .     . .     .     .
|
|
|-----------------------------------------------------------------------|
|-----------------------------------------------------------------------|
|-----------------------------------------------------------------------|Gtr
|----9-----10-------9-----7-----9-------9-----7-----9-------9-----7-----| II
|-----------------------------------------------------------------------|
|-10----10-----8-8-----8-----8-----8-8-----8-----8-----7-7-----7-----7--|
|  .     .     . .     .     .     . .     .     .     . .     .     .
|
|
|-----------------------|
|-----------------------|
|-----------------------|Gtr
|------------10-9-------| I
|-10-9-10-12------10-12-|
|-----------------------|
|
|
|-----------------------|
|-----------------------|
|-------------9-7-------|Gtr
|-9--7-9--10------9--10-| II
|-----------------------|
|-----------------------|


Riff F 1tx
Riff E 2tx (solo)
Riff C 2tx
End on E5 (Fade out)





Comments


Popular Gardenian tabs & chords
Doom And Gloom Tabs
Downfall Tabs
If Tomorrow's Gone Tabs
Selfproclaimed Messiah Intro Tabs
Small Electric Space Tabs


Song lyrics



↑ Back to top | Tablatures and chords are parodies/interpretations of the original songs. You may use it for private study, scholarship, research or language learning purposes only
© 2014 AZChords.com Contact us | Privacy policy | DMCA | Add/correct tabs | Request tabs | Top 50 tabs