>
 >
Small Electric Space

Small Electric Space Guitar Tabs

Gardenian - Small Electric Space chords, tabs, tablatures, lyrics

Guitar lessons | Add/correct | Request | Top 50 tabs Artists:  A B C D E F G H I J K L M N O P Q R S T U V W X Y Z 0-9

Small Electric Space Guitar Tabs – Gardenian

CD, Sheet music, Poster

Do you like Small Electric Space? Share with your friends now
Tabs
                 GARDENIAN - SMALL ELECTRIC SPACE
                     From the Album SOULBURNER
                   Copyright 1999 NUCLEAR BLAST

                     Version 1.0 - AUGUST 2001


For Questions, Comments, Newest Version, or Corrections contact


..  - palm mute          /  - slide up to
 \  - slide down to      ~  - vibrato
 h  - hammer on          b  - bend
 p  - pull off            Suffixes for bend
                          ph - pinch harmonic
                           f - full bend    h - half bend
*  - see comment           r - release      t - tap bend
X  - percussion mute       ~ - vibrato bend
@  - slight palm mute     () - ghost note, sustained note

Tune Gtr to C

SMALL ELECTRIC SPACE

Intro: Piano/Vocals

|----------|
|----------|
|----------|Gtrs
|----------|I&II
|-2-3-4----|
|-0-1-2----|


Riff A
|-----------------------------------------------------------------------------|
|-----------------------------------------------------------------------------|
|-6--8-8-----8--6----6--8-8-----8--6----4--6-6-----6--4----3--4-4-----4--3----|
|-8--9-9-----9--8----8--9-9-----9--8----6--8-8-----8--6----4--6-6-----6--4----|
|-----------------------------------------------------------------------------|
|---------00-------0---------00-------0---------00-------0---------00-------0-|
|         ..       .         ..       .         ..       .         ..       .
|
|                                                                          4tx
|-----------------------------------------------------------------------------|
|-----------------------------------------------------------------------------|
|-----------------------------------------------------------------------------|Gtr
|-----------------------------------------------------------------------------| II
|-8--9-9-----9--8----8--9-9-----9--8----6--8-8-----8--6----4--6-6-----6--4----|
|-6--7-7--00-7--6--0-6--7-7--00-7--6--0-4--6-6--00-6--4--0-2--4-4--00-4--2--0-|
          ..       .         ..       .         ..       .         ..       .


Riff A.1 (under Riff A)                                                    2tx         
|-14~----------------14~----------------------------------12--12/17~----------|
|-------17--16-------------17--16-------17~--16--14---------------------------|
|---------------16~----------------16~---------------16~----------------------|Gtr
|-----------------------------------------------------------------------------|III
|-----------------------------------------------------------------------------|
|-----------------------------------------------------------------------------|


Riff B                                                                         4tx
|----0--------0----5-----0--------0-----5-----0--------7--5--4--------------------|
|---------------4--------------------4--------------------------7--5--4--------4--|
|-------2-------------------2--------------------2-----------------------4--6-----|Gtr
|---------------------------------------------------------------------------------|III
|-0--------0----------0--------0-----------0--------0-----------------------------|
|---------------------------------------------------------------------------------|


Riff C (over Riff B)                                               1tx                                   
|---------------------------------------------------------------------|
|---------------------------------------------------------------------|
|---------------------------------------------------------------------|Gtrs
|---------------------------------------------------------------------|I&II
|-6-6-6-6-6-6-6-6-6-6-6-6-6-6-6-6-6-2-2-2-2-2-2-2-2-2-4-4-4-4-4-4-4-4-|
|-4-4-4-4-4-4-4-4-4-4-4-4-4-4-4-4-4-0-0-0-0-0-0-0-0-0-2-2-2-2-2-2-2-2-|
  . . . . . . . . . . . . . . . . . . . . . . . . . . . . . . . . . . 


Next
|---------------------------------------------------------|
|---------------------------------------------------------|
|---------------------------------------------------------|Gtrs
|---------------------------------------------------------|I&II
|-6-6-6-6-6-6-6-6-6-6-6-6-6-6-6-6-6-2-2-2-2-2-2-2-2-2-4---|
|-4-4-4-4-4-4-4-4-4-4-4-4-4-4-4-4-4-0-0-0-0-0-0-0-0-0-2---|
  . . . . . . . . . . . . . . . . . . . . . . . . . . 


Riff A + Riff A.1 2tx


Riff D
|-------------------------------------------------------------------|
|-------------------------------------------------------------------|
|-6--8-8-----8--6----9/11-11\9--8/9-9\8-----------------------------|Gtr
|-8--9-9-----9--8---------------------------------------------------| I
|--------------------7/9---9\7--6/7-7\6-----7---6h7---7---7---6h7---|
|---------00-------0--------------------0-----0-----0---0---0-----0-|
|         ..       .                          .     .   .   .     .
|
|                                                                2tx
|-------------------------------------------------------------------|
|-------------------------------------------------------------------|
|--------------------9/11-11\9--8/9-9\8-----------------------------|Gtr
|-------------------------------------------------------------------| II
|-8--9-9----9--8-----7/9---9\7--6/7-7\6-----7---6h7---7---7---6h7---|
|-6--7-7-00-7--6---0--------------------0-----0-----0---0---0-----0-|
         ..        .                          .     .   .   .     .


Riff E
|----------------------------------------------7---6---|
|------------------------------------------------7---7-|
|-6--8-8-----8--6-----6--8-8-----8--6---9--------------|Gtr 
|-8--9-9-----9--8-----8--9-9-----9--8---9--------------| I
|---------------------------------------7--------------|
|---------00-------0---------00-------0-0--------------|
|         ..       .         ..       .
|
|
|----------------------------------------------7---6---|
|------------------------------------------------7---7-|
|------------------------------------------------------|Gtr
|---------------------------------------2--------------| II
|-8--9-9-----9--8----8--9-9-----9--8----2--------------|
|-6--7-7--00-7--6--0-6--7-7--00-7--6--0-0--------------|
|         ..       .         ..       .
|
|
|---------------------------------------------------------------------------|
|---------------------------------------------------------------------------|
|-6--8-8-----8--6-----6--8-8-----8--6---------------------------------------|Gtr 
|-8--9-9-----9--8-----8--9-9-----9--8---------------------------------------| I
|---------------------------------------4-4-4-4-4-4-4-4-4-4-4-4-4-4-4-4-4-4-|
|---------00-------0---------00-------0-2-2-2-2-2-2-2-2-2-2-2-2-2-2-2-2-2-2-|
|         ..       .         ..       .   . . . . . . . . . . . . . . . . .
|
|                                                                        2tx
|---------------------------------------------------------------------------|
|---------------------------------------------------------------------------|
|---------------------------------------------------------------------------|Gtr
|---------------------------------------------------------------------------| II
|-8--9-9-----9--8----8--9-9-----9--8----4-4-4-4-4-4-4-4-4-4-4-4-4-4-4-4-4-4-|
|-6--7-7--00-7--6--0-6--7-7--00-7--6--0-2-2-2-2-2-2-2-2-2-2-2-2-2-2-2-2-2-2-|
          ..       .         ..       .   . . . . . . . . . . . . . . . . .


Riff C + Riff F 4tx
Riff D 2tx
Riff E 2tx


Riff F 
|----5----------5----------5----------------------------------------|
|---------8----------8------------8-----7-----8------7-----5-----7--|
|-------------------------------------------------------------------|
|-------------------------------------------------------------------|
|-0----------0----------------0-------------------0-----------------|
|-------------------------------------------------------------------|


Riff C 2tx 


Riff G (over solo)                                                      4tx
|--------------------------------------------------------------------------|
|--------------------------------------------------------------------------|
|--------------------------------------------------------------------------|
|--------------------------------------------------------------------------|
|-6-6-6-6-6-6-6-6-6-6-6-6-6-7/10-2-2-2-2-2-2-2-2-2-2-4-4-4-4-4-4-4-4-4-4\2-|
|-4-4-4-4-4-4-4-4-4-4-4-4-4-5/8--0-0-0-0-0-0-0-0-0-0-2-2-2-2-2-2-2-2-2-2\0-|
    . . . . . . . . . . . .        . . . . . . . . .   . . . . . . . .


Riff D 2tx
Riff E 2tx


Riff H (over solo)                                     4tx
|---------------------------------------------------------|
|---------------------------------------------------------|
|---------------------------------------------------------|
|-6-------------6-------------6-------------6-------------|
|-6---4---4-6---6---4---4-6---6---4---4-6---6---x-x-x-x-x-|
|-4---2-0-2-4-0-4---2-0-2-4-0-4---2-0-2-4-0-4---x-x-x-x-x-|
      . . . . .     . . . . . .   . . . . .

End
|---|
|---|
|---|
|-6-|
|-6-|
|-4-|





Comments


Popular Gardenian tabs & chords
Doom And Gloom Tabs
Downfall Tabs
If Tomorrow's Gone Tabs
Selfproclaimed Messiah Intro Tabs
Tomorrows Gone Tabs


Song lyrics



↑ Back to top | Tablatures and chords are parodies/interpretations of the original songs. You may use it for private study, scholarship, research or language learning purposes only
© 2014 AZChords.com Contact us | Privacy policy | DMCA | Add/correct tabs | Request tabs | Top 50 tabs