>
 >
Run Baby Run

Run Baby Run Guitar Tabs

Garbage - Run Baby Run chords, tabs, tablatures, lyrics

Guitar lessons | Add/correct | Request | Top 50 tabs Artists:  A B C D E F G H I J K L M N O P Q R S T U V W X Y Z 0-9

Run Baby Run Guitar Tabs – Garbage

CD, Sheet music, Poster

Do you like Run Baby Run? Share with your friends now
ChordsTabsTabs v2Ukulele
Tuning: Standard

Please listen to the song for timing and rhythm.  Don’t know how many guitars are in the 
so here are the various riffs anyways…

Guitar 1 (Delay/Distortion)
Riff #1 (Opening)

|--6-6-6-6-6-6666-7-7-7-777-9-9-9-999-----------|
|-----------------------------------------------|
|-----------------------------------------------|     X6
|-----------------------------------------------|
|-----------------------------------------------|
|-----------------------------------------------|

Guitar 2: Opening Chords: B Em B Em Ab Em B Gb
Enter: 0:07 (Listen to song for the rhythm... fast tempo)

|-----------------|
|-----------------|
|--4-x-4-x---4-x--|
|--4-2-4-2-6-2-4--|
|--2-2-2-2-6-2-4--|
|----0---0-4---2--|

Verse 1:
Guitar 1 (Clean) Chords: E D# C# B Ab B C# B F#
Riff #2 (There are several different ways to play this, here is one, use bar chord forms 
you prefer… but this seems to sound okay)

|-------------------------------------------|
|-------------------------------------------|
|--9-9999-9-8-6-444-3/4-444/6/4-------------|X4
|--------------------------------4-4444-----|
|--7-7777-7-6-4-222-1/2-222/4/2-------------|
|--------------------------------2-2222-----|

Guitar 2
Enter: 0:37

|------14------14----:||---14-----|
|----12--12--12--12--:||---12-----|
|--11------11--------:||---11-----|    X6 (Hit the triad once or a few times at the end)
|--------------------:||----------|
|--------------------:||----------|
|--------------------:||----------|

Chorus: Chords: Em C# G# D#

Guitar 1: (Fast Tempo)

|-----------|
|-----------|
|--x-4---8--|   X4
|--2-4-4-8--|
|--2-6-4-6--|
|--0---6----|

Guitar 2 (Fast Tempo.. Listen 2 Song))
(Enter on Guitar 1’s G#)
|------------------|
|------------------|
|--8-11--13/15-----| X4
|------------------|
|--6-9---11/13-----|
|------------------|

Pre Verse: Chords: B Em B F#

Guitar 1:  Play intro lead riff

Guitar 2: (Fast Tempo, you know the drill by now)

|---------------|
|---------------|
|--4---4--------| X1
|--4-2-4-4------|
|--2-2-2-4------|
|----0---2------|

Verse 2:

Same as Verse 1, both  Guitars

Chorus 2:

Same as Chorus 1

Bridge:

Guitar 1:
|--999-----------------------------------|
|--xxx----8/999-777----------------------|
|--666-------------8-8889999888999-9-----| X3
|-----777--------------------------------|
|----------------------------------------|
|----------------------------------------|

Guitar 2:
|--------------------------------------|
|--------------------------------------|
|--888444-13--11-8-88899998889999------| X3
|--------------------------------------|
|--666222-11—9-6-66677776667777--------|
|--------------------------------------|

Chorus 3:

Guitar 1: (Fast Tempo all the way to the end of the song)

|-------------------|
|-------------------|
|--6--11---9/10-----|
|--6--11-8-9/10-----|
|--4--9—8-7/8-------|
|--------6----------|


Well, that should get you started in Standard Tuning. Maybe it's a half step down... but 
seems simple and sounds okay I suppose.  Please let me know about corrections!  Thanks, 
Peace!





Comments


Popular Garbage tabs & chords
Bleed Like Me Bass Tabs
I Think I'm Paranoid 1 Bass Tabs
Push It 2 Bass Tabs
Blood For Poppies 1 Chords
Happy Home 1 Chords
Garbage-When I Grow Up Tabs
I Think Im Paranoid 3 Tabs
Its All Over But 3 Tabs
Only Happy When Tabs
Temptation Waits Tabs


Song lyrics



↑ Back to top | Tablatures and chords are parodies/interpretations of the original songs. You may use it for private study, scholarship, research or language learning purposes only
© 2014 AZChords.com Contact us | Privacy policy | DMCA | Add/correct tabs | Request tabs | Top 50 tabs