» » »

Garbage, Push It Tabs (ver.1)

Artists:  A B C D E F G H I J K L M N O P Q R S T U V W X Y Z # 

Push It Tabs (ver.1)

Garbage Tabs
 Rating:
4/5 (4 votes)
Push It lessons Tabs too difficult? Try these video lessons and learn fast
                All Credit goes to Obscured for tabbing this.
The other version on MXtabs didn't sound right, so I thought I'd put this one up.
This one sounds perfect.
Hope Obscured doesn't mind...

X===============================PLEASE NOTE==============================X
X  This tab is all my own and represents my interpretation of the song.  X
X You may only use this tab for private study, scholarship, or research. X
X  Do not change, deface, mutilate, or in any other way alter this tab.  X
X========================================================================X


*Push It*


Tuning: E A D G B E


INTRO/VERSE
|---------------------------------------------------------------------|
|---12---12---12------8---8---8------10---10---10------10---10---10---|
|-9----9----9----9--9---9---9---9--9----9----9----9--7----7----7----7-|
|---------------------------------------------------------------------|
|---------------------------------------------------------------------|
|---------------------------------------------------------------------|


 Lead towards end of verse - with really harsh effects
|-----------------|
|----------17-15--|
|-16-16-16--------|
|-----------------|
|-----------------|
|-----------------|


PRECHORUS
|-------------|
|-------------|
|-2--4--5--7--|
|-2--4--5--7--|
|-0--2--3--5--|
|-------------|


CHORUS
|-------------|
|-------------|
|----5-----7--|
|-2--5--7--7--|
|-2--3--7--5--|
|-0-----5-----|


 Lead
|-----------------------------|
|---11-12---8-10-8-10b11r10---|
|-9-------9-----------------9-|
|-----------------------------|
|-----------------------------|
|-----------------------------|

|-----------------------------|
|---11-12---8-10-8-10---------|
|-9-------9-------------------|
|-----------------------------|
|-----------------------------|
|-----------------------------|


VERSE 2

 Lead at beginning
|------------------------------|
|-----8-7-----------------7----|
|---9------9------9----7-------|
|-9-------------9---9----------|
|------------------------------|
|------------------------------|

 Lead during verse
|-------------------------------------------------------------|
|----12-----12-----10-----10---------8-----8-----10-----10----|
|-9-----9------9------9-------9----9---9-----9------9---------|
|---------9------9------7-------7--------9-----9------7-------|
|-------------------------------------------------------------|
|-------------------------------------------------------------|


PRECHORUS 2 - Same


CHORUS 2 - Same


INTERLUDE - With tremolo effects
|-12~~~~--12~~-10~~--|
|--------------------|
|-9~~~~~--9~~~-7~~~--|
|--------------------|
|--------------------|
|--------------------|


PRECHORUS 3 - Everything tacet


CHORUS 3 - Same


BRIDGE

 Lead
|------------------------------|
|-----8-7-----------------7----|
|---9------9------9----7-------|
|-9-------------9---9----------|
|------------------------------|
|------------------------------|


CHORUS 4
|---------|
|---------|
|----(0)--|
|-2---2---|
|-2---3---|
|-0--(0)--|


End on
|-----|
|-----|
|-----|
|-2-2-|
|-2-2-|
|-0-0-|
            
Submit corrections

comments powered by Disqus
↑ Back to top | Garbage Tabs for Push It. Lyrics for acoustic guitar and electric guitar. Tablatures and chords are parodies/interpretations of the original songs. You may use it for private study, scholarship, research or language learning purposes only