» » »

Garbage, Only Happy When It Rains Tabs (ver.1)

Artists:  A B C D E F G H I J K L M N O P Q R S T U V W X Y Z # 

Only Happy When It Rains Tabs (ver.1)

Garbage Tabs
 Rating:
4/5 (4 votes)
Only Happy When It Rains lessons Tabs too difficult? Try these video lessons and learn fast
1
                Year : 1996
TUNE : Down One Whole Step

    (verse)
-----------------------------
-----------------------------
-----------------------------
-7--5--3--7--8--5------------
-7--5--3--7--8--5------------  (X 2)
-5--3--1--9--6--3------------



(play this after you play the verse the second time before the chorus, again, there are more strums)
-------
-------
-------
-12----
-12----
-10----

Chorus

-----------------------------
-----------------------------
-----------------------------
-11--9---11--9--11--7--11--7-
-11--9---11--9--11--7--11--7-
-9---7---9---7--9---9--9---9-

(Play verse again)

(2nd guitar, you can hear these two notes in the backround during the verse) this bend is a full step

--------------
--------------
--------------
--------------
--------------
--10--12^-----

(solo) (they use some weird pedal for this, I'm not sure if its a wah pedal or something)

-11------------------11------------------11----------------11--------------
----12-13-11-15---------12-13-11-17---------12-13-11-19-------12-13-11--21-


Outro
(2nd Guitar, you can hear it in the backround during the verse chords)

----------5-5-5--------------4-4-4-----------3-3-3-------------------
-4(p)5-4-------------4(p)5-4---------4(p)5-4-------------------------

(you can also hear this during the outro, its just notes that are being bent, these bends are 3/4 step)

--------------------------
--------------------------
--------------------------
--------------------------
---5^--5-^---3^--3^-------
--------------------------
            
Submit corrections

comments powered by Disqus
↑ Back to top | Garbage Tabs for Only Happy When It Rains. Lyrics for acoustic guitar and electric guitar. 1 Tablatures and chords are parodies/interpretations of the original songs. You may use it for private study, scholarship, research or language learning purposes only