» » »

Garbage, Nobody Loves You Bass tabs (ver.1)

Artists:  A B C D E F G H I J K L M N O P Q R S T U V W X Y Z # 

Nobody Loves You Bass tabs (ver.1)

Garbage Tabs
Rating:
0/5 (0 votes)
Nobody Loves You lessons Tabs too difficult? Try these video lessons and learn fast
                Intro:
G|-----------------------------------|
D|---------------------------1-1-2>>-|
A|----------------2-2-3-3-5-5--------|
E|-0-0-2-2-3-3-5-5-------------------|

Verse:
G|----------------------------0-0------|----0>>-|
D|--0-0----------0-0---------0---------|-3>>----|
A|-0------1-0-1-0------1-0-1-----1-1-1-|--------|
E|-----1-1----------1-1----------------|--------|

Chorus:
G|---------------------------------------------------------|
D|---------------------------------------------------------|
A|-3-5-5-------------5-5-----------5-3-5-5-------------3>>-|
E|------3-3-5-5-3-5-5---3-3-5-5-3-5-------3-3-5-5-3-5-6----|
            
Submit corrections

comments powered by Disqus
↑ Back to top | Garbage Bass for Nobody Loves You. Lyrics for acoustic guitar and electric guitar. Tablatures and chords are parodies/interpretations of the original songs. You may use it for private study, scholarship, research or language learning purposes only