» » »

Garbage, Its All Over But Tabs (ver.3)

Artists:  A B C D E F G H I J K L M N O P Q R S T U V W X Y Z # 

Its All Over But Tabs (ver.3)

Garbage Tabs
 Rating:
4/5 (4 votes)
Its All Over But lessons Tabs too difficult? Try these video lessons and learn fast
1
                The normal song is really easy,cuz it mostly has drums,piano n bass,not so much 
is what i have got:
INTRO (soft guitar)

----------------555555555-------------------------|
---33333333333------------------------------------|
--------------------------------------------------|
--------------------------------------------------|
--------------------------------------------------|
--------------------------------------------------|

When she starts saying:"Certain things just happen when you make no plans..."

----10-10-10-10-10-10---8-8-8-8-8-8-8-|
--------------------------------------|
--------------------------------------|
--------------------------------------|
--------------------------------------|
--------------------------------------|

--------------------------------------|
--------------------------------------|
--------------------------------------|
----7-7-7-7-7-7---5-5-5-5-5-5---------|
----5-5-5-5-5-5---3-3-3-3-3-3---------|
--------------------------------------|

Everything you think you know,baby,is wrong"

------------------------------------------|
-----3-----1------------------------------|
--0----0-----0---0------------------------|
---------3-----2-----2--------------------|
------------------------3-----------------|
------------------------------------------|

It's all over but the cryin'

--------------------------------------|
--------------------------------------|
--------------------------------------| Repeat this 2 times
---5--5-5-5---------------------------|
---3--3-3-3-3--3-3-3---5--5-5-5-------|
------------1--1-1-1---3--3-3-3-------|

-----------------------------------------------------|
-----------------------------------------------------|
-----------------------------------------------------|
---5--5-5-5---3--3-3-3---5--5-5----------------------|
---3--3-3-3---1--1-1-1---3--3-3--3--3-3-3---5--5-5-5-|
---------------------------------1--1-1-1---3--3-3-3-|

Guitar Solo

--------------------------------------|
---------------1-4-3-----3-2-3--------|
-3/12--10-7-12-------0-3--------------|
--------------------------------------|
--------------------------------------|
--------------------------------------|

Baby we're done...if i could,i would,i'd change everything...

----------------------------------------------------|
----------------------------------------------------|
----------------------------------------------------|
---8-8---7-7----------------------------------------|
---6-6---5-5-8-8-8-8---10-10-10---8-8-8-8-----------|
-------------6-6-6-6----8--8--8---6-6-6-6-----------|

Acoustic part (this one's played like a normal complete chord,but in the first part with 
one string pressed, you just have to scratch the first 4 strings,the  you scratch all 
strings at the second chord)

--------------------------------------|
---3-3--3-3-3-3-3-3-0--1--------------|
--------------------------------------|
-----------------------2--------------|
-----------------------3--------------|
--------------------------------------|

Baby we're done...(only with an electric guitar)

----18-17------------18-17------------|
----------18-16------------18-20------|
--------------------------------------|
--------------------------------------|
--------------------------------------|
--------------------------------------|

and that's it,,very simple....
            
Submit corrections

comments powered by Disqus
↑ Back to top | Garbage Tabs for Its All Over But. Lyrics for acoustic guitar and electric guitar. 1 Tablatures and chords are parodies/interpretations of the original songs. You may use it for private study, scholarship, research or language learning purposes only