>
 >
Hammering In My Head

Hammering In My Head Chords

Garbage - Hammering In My Head chords, tabs, tablatures, lyrics

Guitar lessons | Add/correct | Request | Top 50 tabs Artists:  A B C D E F G H I J K L M N O P Q R S T U V W X Y Z 0-9

Hammering In My Head Chords – Garbage

CD, Sheet music, Poster

Do you like Hammering In My Head? Share with your friends now
ChordsUkulele
Band: Garbage
Song Title: Hammering In My Head
Tuning: Eb Ab Db Gb Bb Eb


***THIS TAB HAS ALL KINDS OF FILLS IN IT. I HAVE TWO VERSIONS OF IT IN HERE. THE SIMPLE 
& THE CONFUSING ONE.***

Complete Re-write of this tab on 11.14.10 Added tons of fills and a new way to play the verses.

A bit of info on this song. It has tons of looops, random sounds, beats, guitar parts 
drums everywhere. There

are a ton of wee little riffs I tried to put them in.I have a version of the chord 
that has a Gm played

differently than you are used to I call it GmI. It is a cool three chord progression.


Chords used for this song.

     Gm     G5   GmI   F/2   Eb    Ebm7  Bb     F    F5    C/2
Eb|---3-----------3-----3-----6-----3-----1-----1-----------3---|
Bb|---3-----------3-----1-----8-----3-----3-----1-----------3---|
Gb|---3-----------3-----2-----8-----3-----3-----2-----------5---|
Db|---5-----5-----5-----3-----8-----1-----3-----3-----3-----5---|
Ab|---5-----5-----X-----X-----6-----------1-----3-----3-----3---|
Eb|---3-----3-----X-----X-----------------------1-----1---------|

***********************************************************************************************

***********************************************************************************************
Simplified Version:

Intro: Main Guitar Riff

Verse: Chords & Fill Riff B
Verse Chord Progerssion Version 1
[GmI]	[F/2]	[Ebm7]	[F/2]

Verse Chord Progerssion Version 2
[G5]	[F5]	[Ebm7]	[F5]

Chorus I: Chords
[Bb]	[F] 	[C/2]	[F]
[Bb]	[F] 	[C/2]

Chorus II: Chords & Fill Riff C
[Bb]	[F] 	[C/2]	[F]
[Bb]	[F] 	[C/2]

Bridge: Chords & Random Fills
[Gm]	[F]	[Eb]	[Cm]	[Gm]	[F]	[Eb]	[Cm]

Outro: Chords & Fills
[Gm]	[F]	[Eb]	[F]
*************************************************************************************

*************************************************************************************
Complex Version

Intro:
Guitar I: Plays Main Guitar Riff Four Times

Main Guitar Riff
Eb|---------------|---------------|
Bb|---------11----|-13-13-14-11---|
Gb|---12-12----12-|---------------|
Db|---------------|---------------|
Ab|---------------|---------------|
Eb|---------------|---------------|

Guitar Fill Riff B

Eb|---------------------|------------------------|
Bb|---15----15-b-1/2-15-|----15----15-b-1/2-15---|
Gb|------12-------------|-12----12---------------|
Db|---------------------|------------------------|
Ab|---------------------|------------------------|
Eb|---------------------|------------------------|

Verse I:
I have tabbed out 2 version of the verse. Basicly the same chords but played in a 
different way. Both

versions sound good when played with the cd.

Guitar I: Plays Chords
Guitar II: Plays Fill Riff A & B

Fill Riff A:
Eb|----------------|
Bb|----------------|
Gb|----------------|
Db|---X--X--X--3---|
Ab|------------3---|
Eb|------------1---|

Guitar Fill Riff B

Eb|---------------------|------------------------|
Bb|---15----15-b-1/2-15-|----15----15-b-1/2-15---|
Gb|------12-------------|-12----12---------------|
Db|---------------------|------------------------|
Ab|---------------------|------------------------|
Eb|---------------------|------------------------|

Verse Chord Progerssion Version 1
[GmI]	[F/2]	[Ebm7]	[F/2]

Verse Chord Progerssion Version 2
[G5]	[F5]	[Ebm7]	[F5]


[G5]I'm stressed but you're [F5]freestyle
[Ebm7]I'm overworked but I'm [F5]undersexed [Fill Riff A]
[G5]I must be made of [F5]concrete
[Ebm7]I sign my name across your [F5]chest [Fill Riff A]

Guitar I: Plays Chords
Guitar II: Plays Fill Riff A
[G5]Give out the same old [F5]answers
[Ebm7]I trot them out for the [F5]relatives [Fill Riff A]
[G5]Company tried and [F5]tested
[Ebm7]I use the ones that I love the [F5]best [Fill Riff A]

Guitar I: Play Intro Riff Twice

Chorus I:
Guitar I: Plays Chords

[Bb]Like an animal [F]you're [C/2]moving over me[F]
[Gm]Like an animal [F]you're [C/2]moving over me

(No Guitar In This Part)
When did I get perverted
I can't remember your name [Fill Riff A]
I'm growing introverted
You touch my hand and it's not the same [G5][Fill Riff A]


Verse II:

Guitar I: Plays Chords
Guitar II: Plays Fill Riff A & B

[G5]This was so [F5]unexpected
[Ebm7]I never thought I'd get [F5]caught [Fill Riff A]
[G5]Play boomerang with your [F5]demons
[Ebm7]Shoot to kill and you'll [F5]pop them off [Fill Riff A]
BANG! BANG!

Guitar I: Play Intro Riff Twice

Chorus II:
Guitar I: Plays Chords
Guitar II: Plays Guitar Riff C

Guitar Fill Riff C
Eb|-----------------|-----------1---|
Bb|-----2-3----2-3--|----2-3--------|
Gb|---0------0------|--0------0-----|
Db|-----------------|---------------|
Ab|-----------------|---------------|
Eb|-----------------|---------------|

[Fill Riff C] 	[Bb]Like an animal [F]you're [C/2]moving over me[F]
[Fill Riff C] 	[Gm]Like an animal [F]you're [C/2]moving over me


Bridge: There is all kinds of stuff to play in the bridge so pick your poison. I tabbed 
a few things to play.
Guitar I: Plays Chords
Guitar II: Plays Fill Riffs
Guitar III: Plays Fill Notes

Guitar III Fill Parts
Eb|---11-10--------------|-----------------------------|--------------|
Bb|----------10-11-------|---15-b-1/2-r-15-b-1/2-r15---|--------------|
Gb|-----------------12---|-----------------------------|---14-b-1/2---|
Db|----------------------|-----------------------------|--------------|
Ab|----------------------|-----------------------------|--------------|
Eb|----------------------|-----------------------------|--------------|

Bridge Chords:
[Gm]	[F]	[Eb]	[Cm]	[Gm]	[F]	[Eb]	[Cm]

[Gm]You should be [F]sleeping my [Eb]love [Cm]
[Gm]Tell me what [F]you're dreaming of[Eb]  [Cm]

[No Guitar]
You should be sleeping my love
Tell me what you're dreaming of

Change Up:
Guitar I: Plays Intro Riff
Guitar II: Chords Listen To Song For Rythmn

[G5]	[F5]	[Ebm7]	[F5]

You should be sleeping my love
Tell me what you're dreaming of
You should be sleeping my love
Tell me what you're dreaming of


Outro:
Guitar I: Plays Chords

[Gm]I knew you were mine for the [F]taking
[Eb]I knew you were mine for the [F]taking
[Gm]I knew you were mine for the [F]taking
When I walked in the room [Eb] [F]

[Gm]I knew you were mine for the [F]taking
[Eb]I knew you were mine for the [F]taking
[Gm]Your eyes light up When [F]I walk in the room [Eb] [F]


Outro Talking: Random Loops & Drums No Guitar

A hammering in my head don't stop
I'm leaving you behind
A flash in the pan
A storm in a teacup
A needle in a haystack
A prize for the winning
A dead for the raising
A catch for the chasing
A jewel for the choosing
A man for the making in this blistering heat

Guitar I: Plam Muted Rappid Strumming
Sweat it all out
Sweat it all out
With your bedroom eyes and your baby pouts
Sweat it all out
In our electric storms and our shifting sands
Our candy jars and our sticky hands

Sweat it all out [6x]

Don't forget what I wrote you then
And don't forget what I told you then
And don't forget I that meant to win
And don't forget your ventolin
So a hammering in my head don't stop
In the bullet train from Tokyo to Los Angeles.





Comments


Popular Garbage tabs & chords
Pushit Bass Tabs
Why Do You Love Me 2 Bass Tabs
Medication 3 Chords
Number 1 Crush Chords
You Look So Fine 1 Chords
Dumb Tabs
Medication Tabs
Special 3 Tabs
Beautiful Ukulele
When I Grow Up Ukulele


Song lyrics



↑ Back to top | Tablatures and chords are parodies/interpretations of the original songs. You may use it for private study, scholarship, research or language learning purposes only
© 2014 AZChords.com Contact us | Privacy policy | DMCA | Add/correct tabs | Request tabs | Top 50 tabs