>
 >
Dumb

Dumb Guitar Tabs

Garbage - Dumb chords, tabs, tablatures, lyrics

Guitar lessons | Add/correct | Request | Top 50 tabs Artists:  A B C D E F G H I J K L M N O P Q R S T U V W X Y Z 0-9

Dumb Guitar Tabs – Garbage

CD, Sheet music, Poster

Do you like Dumb? Share with your friends now
Tabs
Band: Garbage
Song Title: Dumb
Tuning: Normal

11.20.10 Cirrected a couple chords.

Chords Used For This Song

    A5    B5    C#5   D5    E5    D/2    G#5
E|---------------------------------0------------|
B|---------------6-----7-----------3------------|
G|---2-----4-----6-----7-----------2------------|
D|---2-----4-----4-----5-----2-----0------6-----|
A|---0-----2-----------------2------------6-----|
E|----------------------------------------4-----|


Intro:
Guitar I: Play F#5 listen to song for rhythmn

We can't hear you just static come back
Go on channel 4...come back
We can hear you little bit...alright [F#5]

Verse 1:

I never claimed to be your saviour
I said I had a dirty mouth
Stop analysing my behaviour
[D5]If you're too dumb to work it out[B5]

Guitar Part I: Plays Chords
Guitar Part II: Riff A

Guitar Riff A
E|-------0-----2---|-------0---2------------|
B|-------0-----2---|-------0---2------------|
G|-----------------|------------------------|
D|-----------------|------------------------|
A|-----------------|------------------------|
E|---2-------------|---2--------------------|


***Starting at this poing you can play the chords or Guitar Part I or II***


[F#5]I've got to keep myself together
You know I hate to disappoint
A masochistic lamb to slaughter
[D5]Maybe you miss the point?[B5]



Pre Chours:
Guitar I: Plays Chords
Guitar II: Plays Fill Riff B

Fill Riff B:
 |------------------PLAY-TWICE-----------------------|-------ENDS-ON-THIS-PART------|
 |                                                   |                              |
E|--------------------------|------------------------|------------------------|-----|
B|---2--2--2--0--2--2--2--0-|-2--2--2--0--2--3--2--0-|-2--2--2--0--2--2--2--0-|-2---|
G|--------------------------|------------------------|------------------------|-----|
D|--------------------------|------------------------|------------------------|-----|
A|--------------------------|------------------------|------------------------|-----|
E|--------------------------|------------------------|------------------------|-----|


I'm feeling [E]small [D/2]
I'm climbing the walls[F#5]  [E5]
I don't let it[D/2] show     [E5]

Chorus:
Guitar I: Plays Chords
Guitar II: Plays Fill Riff C

Fill Riff C: Repeats Three Times
E|----------------------------|
B|----------------------------|
G|---------------12-----------|
D|-------13--11------11--13---|
A|---11-----------------------|
E|----------------------------|

Now that you [C#5]know what you know[B5]
I bet you [C#5]wish you could let it go[G#5]
You'll never [A5]come sucking your [B5]thumb
Better off dumb.............What we needs just static Ok.....?

Guitar Part After Chorus:
***I Think This Is Two Guitars Playing Here Is My One Guitar Version Of This Part****

E|------------------|-----------------------|
B|-------14--15--14-|-----14-b-15-r-14-14---|
G|---11-------------|-11--------------------|
D|------------------|-----------------------|
A|------------------|-----------------------|
E|------------------|-----------------------|


Verse 2:
Guitar Part I: Plays Chords
Guitar Part II: Riff A

[F#5]Maybe I could write a letter
To help me with my self-esteem
You should get to know me better
[D5]No one's ever what they [B5]seem

Pre Chours:
Guitar I: Plays Chords
Guitar II: Plays Fill Riff B

I'm feeling [E]small [D/2]
I'm climbing the walls[F#5]  [E5]
I don't let it[D/2] show     [E5]

Chorus:
Guitar I: Plays Chords
Guitar II: Plays Fill Riff C


Now that you [C#5]know what you know[B5]
I bet you [C#5]wish you could let it go[G#5]
You'll never [A5]come sucking your [B5]thumb
Better off dumb....

Bridge: No Guitars

Still don't know what you think of me
Still don't know what you mean to me
Still don't know what to think of me
Still don't know what you think of me

Instrumental Break: Pick What Ever You Want To Play Here
Guitar I: Plays Chords
Guitar II: Plays Riff D (Album Version Is Octives) I have tabbed Two Versions

Guitar I:
[F#]        [A]        [D]        [B]

Guitar II: 

Riff D (Cheat Version)

 |-------------------Repeat Three Times------------------|--Ending--|
 |                                                       |          |
E|----------|--------|--------|--------------------------|----------|
B|----------|--------|--------|--------------------------|----------|
G|---10--11-|-10--11-|-10--11-|-10--11--13--13-b-14-r-13-|-10-/-6---|
D|----------|--------|--------|--------------------------|----------|
A|----------|--------|--------|--------------------------|----------|
E|----------|--------|--------|--------------------------|----------|


Riff D (Album Version)

 |-------------------Repeat Three Times------------------|--Ending--|
 |                                                       |          |
E|----------|--------|--------|--------------------------|----------|
B|----------|--------|--------|--------------------------|----------|
G|---10--11-|-10--11-|-10--11-|-10--11--13--13-b-14-r-13-|-10-/-6---|
D|---X---X--|-X---X--|-X---X--|-X---X--------------------|-X----X---|
A|---8---9--|-8---9--|-8---9--|-8---9--------------------|-8----4---|
E|----------|--------|--------|--------------------------|----------|


Ourto
Guitar I: Plays Chords

Now that you [C#]know what you [B]know
I bet you [C#]wish you could let it [G#]go
You'll never [A]come sucking your [B]thumb
Better off dumb.....[F#]

Now that you [C#]know what you [B]know
You're going to [C#]reap what you [G#]sow
Nothing will [A]come sucking your [B]thumb
Better off dumb.....[F#]

[F#] (Listen To Song For Rythmn)
You still don't know what you think of me
You still don't know what you mean to me
You still don't know what to think of me

You still don't know what you think of me 
You still don't know what you think of me
You still don't know what you think of me
You still don't know what you think of me
You still don't know what you think of me

You still don't know what I think of me
You still don't know what you think of me. 





Comments


Popular Garbage tabs & chords
Why Do You Love Me Bass Tabs
Happy Home 1 Chords
Not Your Kind Of People Chords
Supervixen Chords
Bleed Like Me 3 Tabs
Blood For Poppies Tabs
I Think I'm Paranoid Tabs
I Think I'm Paranoid 2 Tabs
Not My Idea Tabs
Supervixen Ukulele


Song lyrics



↑ Back to top | Tablatures and chords are parodies/interpretations of the original songs. You may use it for private study, scholarship, research or language learning purposes only
© 2014 AZChords.com Contact us | Privacy policy | DMCA | Add/correct tabs | Request tabs | Top 50 tabs