» » »

Blood For Poppies Tabs (ver.1)

Artists:  A B C D E F G H I J K L M N O P Q R S T U V W X Y Z # 

Blood For Poppies Tabs (ver.1)

Garbage
Rating:
0/5 (0 votes)

Hard to play? Try these video lessons and learn fast.
                
b bend
/ slide up
\ slide down

Tuning: 1/2 Step Down

--------|----------------------------------|--|-------------------------------|
--------|----------------------------------|--|-------------------------------|
--------|----------------------------------|--|-------------------------------|
--------|----------------------------------|--|-------------------------------|
--------|-----2---2-4b------1---1----------|--|-------------------------------|
--------|-4-4---4-------3-3---3----3--3/4--|--|-------------------------------|


--------|-0----0----|---------------------------------------------------------|
--------|-4----4----|---------------------------------------------------------|
--------|-4----3----|---------------------------------------------------------|
--------|-6----5----|---------------------------------------------------------|
--------|-----------|---------------------------------------------------------|
--------|-----------|---------------------------------------------------------|
        Verse Pick Chords

--------|----------|----------------------------------------------------------|
--------|----------|----------------------------------------------------------|
--------|-----4----|----------------------------------------------------------|
--------|-9---6----|----------------------------------------------------------|
--------|-9---7----|----------------------------------------------------------|
--------|-x---x----|----------------------------------------------------------|
        Chorus Chords Strum
            
Hard to play? Try these video lessons and learn fast. | Correct




comments powered by Disqus
↑ Back to top | Tablatures and chords are parodies/interpretations of the original songs. You may use it for private study, scholarship, research or language learning purposes only