>
 >
Beautiful

Beautiful Guitar Tabs

Garbage - Beautiful chords, tabs, tablatures, lyrics

Guitar lessons | Add/correct | Request | Top 50 tabs Artists:  A B C D E F G H I J K L M N O P Q R S T U V W X Y Z 0-9

Beautiful Guitar Tabs – Garbage

CD, Sheet music, Poster

Do you like Beautiful? Share with your friends now
ChordsTabsUkulele
First of all, I don't know whether the recording was tuned up a half step or the guitar 
but in order to match the key of the recording you will have to tune each string up a 
step so that would be F A# D# G# C F.

Intro/Verse
Bbm7                                   Bbm7/Ab
|-----0-0-0---0-0-0-|-----0-0-0---0-0-0|----0-0-0---0-0-0|----0-0-0---0-0-0|
|-----1-1-1---1-1-1-|-----1-1-1---1-1-1|----1-1-1---1-1-1|----1-1-1---1-1-1|
|-----0-0-0---0-0-0-|-----0-0-0---0-0-0|----0-0-0---0-0-0|----0-0-0---0-0-0|
|-----2-2-2-3-2-2-2-|-----2-2-2-3-2-2-2|----2-2-2-3-2-2-2|----2-2-2-3-2-2-2|
|0-0--0--0----0-----|0-0--0---0---0----|-----------------|-----------------|
|-------------------|------------------|3-3-3---3---3----|3-3-3---3---3----|

D#msus2                             F
|-----0-0-0-0-1-1|------0-0-0-0-1-1|----0-0-0---0-0-0|----0-0-0---0--------|
|-----1-1-1-1-1-1|------1-1-1-1-1-1|----0-0-0---0-0-0|----0-0-0---0--------|
|-----2-2-2-2-2-2|------2-2-2-2-2-2|----1-1-1---1-1-1|----1-1-1---1--------|
|0-0--0-----0-0-0|-0-0--0-----0-0-0|----2-2-2-3-3-2-2|----2-2-2-3-2--------|
|----------------|-----------------|----2-2-2---2-2-2|----2-2-2---2--------|
|----------------|-----------------|0-0-0---0---0----|0-0-0---0---0--------|
                                                                  Let ring~

Pre-Chorus
Bbm           Fmsus          C#             D#sus4
|-0---0-0--0-0|-3---3-3--3-3|-3---3-3--3-3|-0-0---0-0--0-0|
|-1---1-1--1-1|-3---3-3--3-3|-1---1-1--1-1|-1/3---3-3--3-3|
|-2---2-2--2-2|-4---4-4--4-4|-0---0-0--0-0|-0-0---0-0--0-0|
|-2---2-2--2-2|-2---2-2--2-2|-2---2-2--2-2|-2/4---4-4--4-4|
|-0---0-0--0-0|-2---2-2--2-2|-3---3-3--3-3|-3/5---5-5--5-5|
|-------------|-0---0-0--0-0|-------------|---------------|
D#msus          F
|--0-0-0-0-1-1|--0----------|
|--1-1-1-1-1-1|--0----------|
|--2-2-2-2-2-2|--1----------|
|--0-----0-0-0|--2----------|
|-------------|--2----------|
|-------------|--0----------|

Pre-Chorus(variation)
Bbm            Fmsus         C#           D#sus4
|-0---0-0--0-0|-3---3-3--3-3|-3---3-3--3-3|-0-0---0-0--0-0|
|-1---1-1--1-1|-3---3-3--3-3|-1---1-1--1-1|-1/3---3-3--3-3|
|-2---2-2--2-2|-4---4-4--4-4|-0---0-0--0-0|-0-0---0-0--0-0|
|-2---2-2--2-2|-2---2-2--2-2|-2---2-2--2-2|-2/4---4-4--4-4|
|-0---0-0--0-0|-2---2-2--2-2|-3---3-3--3-3|-3/5---5-5--5-5|
|-------------|-0---0-0--0-0|-------------|---------------|
D#msus          Fmsus         D#msus         Fmsus
|--0-0-0-0-1-1|-3---3-3--3-3|--0-0-0-0-1-1|---3---3-3--3-3|
|--1-1-1-1-1-1|-3---3-3--3-3|--1-1-1-1-1-1|---3---3-3--3-3|
|--2-2-2-2-2-2|-4---4-4--4-4|--2-2-2-2-2-2|---4---4-4--4-4|
|--0-----0-0-0|-2---2-2--2-2|--0-----0-0-0|---2---2-2--2-2|
|-------------|-2---2-2--2-2|-------------|---2---2-2--2-2|
|-------------|-0---0-0--0-0|-------------|---0---0-0--0-0|
D#msus          F
|--0-0-0-0-1-1|-0-----------|
|--1-1-1-1-1-1|-0-----------|
|--2-2-2-2-2-2|-1-----------|
|--0-----0-0-0|-2-----------|
|-------------|-2-----------|
|-------------|-0-----------|

Chorus Riff
                    F#5     F5        D#5 F5
|------------------|-------------------------|
|------------------|-------------------------|
|------------------|------------------7/9-9-9|
|------------------|-3-3-x-3-2---2-2--7/9-9-9|
|-0-0---0-2-----0--|-3-3-x-3-2---2-2--5/7-7-7|
|-----0-----------3|-1-1-x-1-0---0-0---------|
(this is repeated a # of times depending on which time around just listen to the song)

There is no guitar in the bridge but there is a repeated high note that could be played 
guitar:

|-12-12-x-12-etc.|
|----------------|
|----------------|
|----------------|
|----------------|
|----------------|


Order of the song:
1.) Intro (w/o lyrics)
2.) Verse x2
3.) Pre-chorus
4.) Chorus
5.) Verse
6.) Pre-chorus
7.) Chorus
8.) Bridge
9.) Verse
10.) Pre-chorus (variation)
11.) Chorus





Comments


Popular Garbage tabs & chords
Number 1 Crush 2 Bass Tabs
Nobody Loves You Chords
Supervixen Chords
Why Do You Love Me Chords
Dog New Tricks Tabs
Dumb Tabs
Girls Don't Come Tabs
Only Happy When It Rains 1 Tabs
Queer 1 Tabs
Cherry Lips Go Baby Go Ukulele


Song lyrics



↑ Back to top | Tablatures and chords are parodies/interpretations of the original songs. You may use it for private study, scholarship, research or language learning purposes only
© 2014 AZChords.com Contact us | Privacy policy | DMCA | Add/correct tabs | Request tabs | Top 50 tabs