>
 >
As Heaven Is Wide

As Heaven Is Wide Guitar Tabs

Garbage - As Heaven Is Wide chords, tabs, tablatures, lyrics

Guitar lessons | Add/correct | Request | Top 50 tabs Artists:  A B C D E F G H I J K L M N O P Q R S T U V W X Y Z 0-9

As Heaven Is Wide Guitar Tabs – Garbage

CD, Sheet music, Poster

Do you like As Heaven Is Wide? Share with your friends now
Tabs
Band: Garbage
Song Title: As Heaven Is Wide
Tuning: Eb Bb Gb Db Ab Eb

Chords Used For This Song:

     Am   B   C   D  Em Edim  G      A5  B5  C5  D5  E5
Eb|---0---2---0---2---0---0---3---|----------------------|
Bb|---1---4---1---3---0---0---3---|----------------------|
Gb|---2---4---0---2---0---0---0---|---2---4---5---7------|
Db|---2---4---2---0---2---2---0---|---2---4---5---7--2---|
Ab|---0---2---3-------2---1---2---|---0---2---3---5--2---|
Eb|-------------------0---0---3---|------------------0---|


Riff A: This is the bass riff for guitar
Eb|-----------------|---------------------------------|
Bb|-----------------|---------------------------------|
Gb|-----------------|---------------------------------|
Db|---------2-------|-------2-------------------------|
Ab|---------------1-|--------------1-(b-1/2-r)-1------|
Eb|---0--0-----0----|-0--0------0-----------------3---|

Intro:
Guitar I: Plays Riff A
Guitar II: Plays Chords

  |---------------------E---------------------|---------------------C-----------------------|
  |                                           |                                             |
Eb|---------------|---------------------------|-----------------|---------------------------|
Bb|---------------|---------------------------|-----------------|---------------------------|
Gb|---------------|---------------------------|-----------------|---------------------------|
Db|-------2-------|-------2-------------------|---------2-------|-------2-------------------|
Ab|-------------1-|--------------1-(b-r)-1----|---------------1-|--------------1-(b-r)-1----|
Eb|-0--0-----0----|-0--0------0-------------3-|---0--0-----0----|-0--0------0---------------|

  |-------------------Am----------------------|---------------------D-----------------------|
  |                                           |                                             |
Eb|---------------|---------------------------|-----------------|---------------------------|
Bb|---------------|---------------------------|-----------------|---------------------------|
Gb|---------------|---------------------------|-----------------|---------------------------|
Db|-------2-------|-------2-------------------|---------2-------|-------2-------------------|
Ab|-------------1-|--------------1-(b-r)-1----|---------------1-|--------------1-(b-r)-1----|
Eb|-0--0-----0----|-0--0------0-------------3-|---0--0-----0----|-0--0------0-------------3-|



Verse 1:
Guitar I: Plays Riff A
Guitar II: Plays Chords

[Am]Nothing that you say will release you
[C]Nothing that you pray would forgive you
[Am]Nothing's what your words mean to me[D]

[E]Something that you did will destroy me
[C]Something that you said will stay with me
[Am]Long after you are dead and [D]gone


Pre-Chorus 1:
Guitar I: Plays Chords

[A5]If flesh could crawl My [B5]skin would fall from 
[C5]Off my bones and [D5]run away from here


Chorus 1:
Verse 1:
Guitar I: Plays Lead
Guitar II: Plays Chords

Guitar I Lead:

  |--------E-------|------Edim------|
  |                |                |
Eb|----------------|----------------|
Bb|-12----------12-|-11----------11-|
Gb|---------12-----|---------12-----|
Db|-----14---------|-----14---------|
Ab|----------------|----------------|
Eb|----------------|----------------|

As far from [E]God
As heaven is [Edim]wide
As far from [E]God
As angels can [Edim]fly


Interlude:
Guitar I: Plays Riff A
Guitar II: Plays Chords

  |---------------------E---------------------|-------------------C-----------------------|
  |                                           |                                           |
Eb|---------------|---------------------------|---------------|---------------------------|
Bb|---------------|---------------------------|---------------|---------------------------|
Gb|---------------|---------------------------|---------------|---------------------------|
Db|-------2-------|-------2-------------------|-------2-------|-------2-------------------|
Ab|-------------1-|--------------1-(b-r)-1----|-------------1-|--------------1-(b-r)-1----|
Eb|-0--0-----0----|-0--0------0-------------3-|-0--0-----0----|-0--0------0---------------|

  |-------------------Am----------------------|-------------------D-----------------------|
  |                                           |                                           |
Eb|---------------|---------------------------|---------------|---------------------------|
Bb|---------------|---------------------------|---------------|---------------------------|
Gb|---------------|---------------------------|---------------|---------------------------|
Db|-------2-------|-------2-------------------|-------2-------|-------2-------------------|
Ab|-------------1-|--------------1-(b-r)-1----|-------------1-|--------------1-(b-r)-1----|
Eb|-0--0-----0----|-0--0------0-------------3-|-0--0-----0----|-0--0------0-------------3-|


Verse 2:
Guitar I: Plays Riff A
Guitar II: Plays Chords

Guitar II Part:

  |--Part-A---|--Part-B--|--Part-C---|
  |           |          |           |
Eb|-----------|----------|-----------|
Bb|-----------|----------|-----------|
Gb|---9/12-9--|--9/14-9--|--9/12-7---|
Db|---9/12-9--|--9/12-9--|--9/12-7---|
Ab|---7/10-7--|--7/12-7--|--7/10-5---|
Eb|-----------|----------|-----------|

[Part A]If holy is as holydoes
[Part B]This house will burn straight down to hell

[Part C]Take its conscience with it as it falls
[Part A]Nothing said could change the fact

[Part B]My trust was blind, you broke the pact
[Part C]If god's my witness god must be blind


Pre-Chorus 2:
Guitar I: Plays Chords

[A5]If flesh could crawl My [B5]skin would fall from 
[C5]Off my bones and [D5]run away from here


Chorus 2:
Guitar I: Plays Lead
Guitar II: Plays Chords

Guitar I Lead:

  |--------E-------|------Edim------|
  |                |                |
Eb|----------------|----------------|
Bb|-12----------12-|-11----------11-|
Gb|---------12-----|---------12-----|
Db|-----14---------|-----14---------|
Ab|----------------|----------------|
Eb|----------------|----------------|

As far from [E]God
As heaven is [Edim]wide
As far from [E]God
As angels can [Edim]fly

Bridge:
Guitar I: Plays Lead
Guitar II: Plays Chords

  |-------Em-------|------Edim------|-------Em-------|------Edim------|
  |                |                |                |                |
Eb|----------------|----------------|----------------|----------------|
Bb|-12----------12-|-11----------11-|-12----------12-|-11----------11-|
Gb|---------12-----|---------12-----|---------12-----|---------12-----|
Db|-----14---------|-----14---------|-----14---------|-----14---------|
Ab|----------------|----------------|----------------|----------------|
Eb|----------------|----------------|----------------|----------------|

[E]I wish [Edim]I wish [G]I wish [E]I could fly


Verse 3:
Guitar I: Plays Riff A
Guitar II: Plays Chords

[E]Take it back, I dare you, take it back
[C]No you can't? You should have thought of that
[Am]What's inside a man that goes so wrong [D]

[E]Choke on guilt that's far too good for you
[C]Say one word I'll laugh and bury you
[Am]And leave you in the place where you left me [D]

Pre-Chorus 3:
Guitar I: Plays Chords

[A5]If flesh could crawl My [B5]skin would fall from 
[C5]Off my bones and [D5]run away from here

Guitar I: Plays Lead
Guitar II: Plays Chords

  |-------Em-------|------Edim------|-------Em-------|------Edim------|
  |                |                |                |                |
Eb|----------------|----------------|----------------|----------------|
Bb|-12----------12-|-11----------11-|-12----------12-|-11----------11-|
Gb|---------12-----|---------12-----|---------12-----|---------12-----|
Db|-----14---------|-----14---------|-----14---------|-----14---------|
Ab|----------------|----------------|----------------|----------------|
Eb|----------------|----------------|----------------|----------------|

As far from [E]God
As heaven is [Edim]wide
As far from [E]God
As angels can [Edim]fly

Guitar I: Plays Riff A til the end of the song
Guitar II: Plays chords [E]        [C]        [Am]        [D]
I wish I could fly
As angels can fly





Comments


Popular Garbage tabs & chords
Milk 1 Bass Tabs
Only Happy When It Rains 2 Bass Tabs
Rain Bass Tabs
Subhuman Bass Tabs
Happy Home Chords
Bad Boyfriend Intro Tabs
Medication 1 Tabs
Milk Tabs
Sleep Together Tabs
Number 1 Crush Ukulele


Song lyrics



↑ Back to top | Tablatures and chords are parodies/interpretations of the original songs. You may use it for private study, scholarship, research or language learning purposes only
© 2014 AZChords.com Contact us | Privacy policy | DMCA | Add/correct tabs | Request tabs | Top 50 tabs