» » »

You're Sorry Bass tabs (ver.1)

Artists:  A B C D E F G H I J K L M N O P Q R S T U V W X Y Z # 

You're Sorry Bass tabs (ver.1)

Garage Boy Mafia
Rating:
0/5 (0 votes)

Hard to play? Try these video lessons and learn fast.
                Garage Boy Mafia
"Your Sorry..."
WorldwidePUNK182

Intro
G|-------------------------------------------|
D|-------------------------------------------|
A|------------------11-12-------------6-7----|
E|-12-12-12-12-12-12------7-7-7-7-7-7--------|

G|-------------------------------------------|
D|-------------------------------------------|
A|-------------8-9---------------------------|
E|-9-9-9-9-9-9-----5-5-5-5-7-7-7-7-----------|

Chorus
G|-------------------------------------------------|
D|-------------------------------------------------|
A|-------------------------12-12-12-12-11-11-11-11-|
E|-12-12-12-12-12-12-12-12-------------------------|

G|-------------------------------------------|
D|-------------------------------------------|
A|-6-6-6-6-6-6-6-6---------------------------|
E|-----------------6-6-6-6-5-5-5-5-----------|

Verse
G|-------------------------------------------|
D|-------------------------------------------|
A|-------------------------------------------|
E|-12-12-12-12-12-12-12-12--7-7-7-7-7-7-7-7--|

G|-------------------------------------------|
D|-------------------------------------------|
A|-------------------------------------------|
E|-7-7-7-7-7-7-7-7-5-5-5-5-7-7-7-7-----------|

Bridge
G|-------------------------------------------|
D|-------------------------------------------|
A|------------------11-12-------------6-7----|
E|-12-12-12-12-12-12------7-7-7-7-7-7--------|

G|-------------------------------------------|
D|-------------------------------------------|
A|-------------8-9-----4-5-----6-7-----------|
E|-9-9-9-9-9-9-----5-5-----7-7---------------|
            
Hard to play? Try these video lessons and learn fast. | Correct




comments powered by Disqus
↑ Back to top | Tablatures and chords are parodies/interpretations of the original songs. You may use it for private study, scholarship, research or language learning purposes only