» » »

Windy City Bass tabs (ver.1)

Artists:  A B C D E F G H I J K L M N O P Q R S T U V W X Y Z # 

Windy City Bass tabs (ver.1)

Garage Boy Mafia
Rating:
0/5 (0 votes)

Hard to play? Try these video lessons and learn fast.
                Garage Boy Mafia
"Windy City "
WorldwidePUNK182

(Play Slowly)
Verse
G|---------------------------------------------|
D|---------------------------------------------|
A|---------------------------------------------|
E|-12-12-12-12-12-12-12-12-11-11-11-11-9-9-9-9-|

G|---------------------------------------------|
D|---------------------------------------------|
A|---------------------------------------------|
E|-7-7-7-7-7-7-7-7-9-9-9-9-11-11-11-11---------| 

Chorus
G|---------------------------------|
D|---------------------------------|
A|---------------------------------|
E|-5-5-5-5-5-5-5-5-7-7-7-7-7-7-7-7-|

G|---------------------------------|
D|---------------------------------|
A|-3-3-3-3-3-3-3-3-5-5-5-5-5-5-5-5-|
E|---------------------------------|

Bridge

x2
G|------------------------------------|
D|------------------------------------|
A|-----------------------7--------7---|
E|-5-5-7-5--5-5-7-5--5-5---5--5-5---5-|

G|------------------------------------|
D|------------------------------------|
A|-----------------------5--------5---|
E|-5-5-7-5--5-5-7-5--5-5---5--5-5---5-|

x1
G|---------|
D|---------|
A|---------|
E|-5--7--9-|

x2
G|-------------------------------------------------|
D|-------------------------------------------------|
A|-------------------------------------------------|
E|-12-12-12-12-12-12-12-12-12-12-12-12-12-12-12-12-|

G|-----------------------------------------|
D|-----------------------------------------|
A|-----------------------------------------|
E|-10-10-10-10-20-10-10-10-9-9-9-9-7-7-7-7-|
            
Hard to play? Try these video lessons and learn fast. | Correct




comments powered by Disqus
↑ Back to top | Tablatures and chords are parodies/interpretations of the original songs. You may use it for private study, scholarship, research or language learning purposes only