» » »

Resent You Bass tabs (ver.1)

Artists:  A B C D E F G H I J K L M N O P Q R S T U V W X Y Z # 

Resent You Bass tabs (ver.1)

Garage Boy Mafia
Rating:
0/5 (0 votes)

Tabs too difficult? Try these video lessons and learn fast.
                Garage Boy Mafia
"Resent You"


Verse
G|-----------------------------------------|
D|-----------------------------------------|
A|-7-7-7-7--7---7----3-3-3-3--3---3--------|
E|------------7---7-------------3---3------|

G|-----------------------------------------|
D|-----------------------------------------|
A|-5-5-5-5--5---5----1-1-1-1--1---1--------|
E|------------5---5-------------1---1------|

Filler
G|----------------------------------|
D|----------------------------------|
A|----------------------------------|
E|-3-3-3-3-3-3-3-1-3-3-3-3-3-3-3-1--|

G|----------------------------------|
D|----------------------------------|
A|----------------------------------|
E|--3-3-3-3-3-3-3-1-3-3-3-3-3-3-3-1-|

Chorus
G|---------------------------------|
D|---------------------------------|
A|-7-7-7-7-7-7-7-7-3-3-3-3-3-3-3-3-|
E|---------------------------------|

G|---------------------------------|
D|---------------------------------|
A|-5-5-5-5-5-5-5-5-1-1-1-1-3-3-3-3-|
E|---------------------------------|

Bridge 
G|-9---9---5---5---7---7---3---3---|
D|---7---7---3---3---5---5---1---1-|
A|---------------------------------|
E|---------------------------------|

Bridge 2
G|---------------------------------|
D|---------------------------------|
A|---------------------------------|
E|-7-------3--------5--------1-----|
            
Tabs too difficult? Try these video lessons and learn fast.




comments powered by Disqus
↑ Back to top | Tablatures and chords are parodies/interpretations of the original songs. You may use it for private study, scholarship, research or language learning purposes only