» » »

Garage Boy Mafia, Rapture Bass tabs (ver.1)

Artists:  A B C D E F G H I J K L M N O P Q R S T U V W X Y Z # 

Rapture Bass tabs (ver.1)

Garage Boy Mafia Tabs
 Rating:
4/5 (4 votes)
Rapture lessons Tabs too difficult? Try these video lessons and learn fast
1
                Garage Boy Mafia
"Rapture"
WorldwidePUNK182

Verse
G|----------------------------------------|
D|----------------------------------------|
A|-5-55-555-5-55-555-5-55-555-5-55-555----|
E|----------------------------------------|

Chorus
G|----------------------------------------|
D|----------------------------------------|
A|-5-55---------------5-55----------------|
E|------5-55-77-5-555------5-55-777-7-777-|

G|----------------------------------------|
D|----------------------------------------|
A|----------3-33-333----------------------|
E|-5-55-555---------2-22-222-4-44-444-----|

Afer-Chorus
G|----------------------------------------|
D|----------------------------------------|
A|----------------------------------------|
E|-5-5-5-5-5-5-5-5-5-5-5-5-5-5-5-5--------|


Bridge
(All Hammer-ons and pull-offs)
G|-----------------------------------------|
D|-----------------------------------------|
A|-7-8-9-8-7-8-9-8-7-8-9-8-7-8-9-8-7-8-9-8-|
E|-----------------------------------------|
            
Submit corrections

comments powered by Disqus
↑ Back to top | Garage Boy Mafia Bass for Rapture. Lyrics for acoustic guitar and electric guitar. 1 Tablatures and chords are parodies/interpretations of the original songs. You may use it for private study, scholarship, research or language learning purposes only