» » »

Garage Boy Mafia, Punk Rawk Anthem Bass tabs (ver.1)

Artists:  A B C D E F G H I J K L M N O P Q R S T U V W X Y Z # 

Punk Rawk Anthem Bass tabs (ver.1)

Garage Boy Mafia Tabs
 Rating:
4/5 (4 votes)
Punk Rawk Anthem lessons Tabs too difficult? Try these video lessons and learn fast
                Garage Boy Mafia
"Punk Rawk Anthem"
WorldwidePUNK182

Begin on:
G|---|
D|---|
A|-3-|
E|---|


Verse
G|-----------------------------------------------------------------|
D|-0-0-0-1-2-2-2-1-0-0-0-1-2-2-2-1-0-0-0-1-2-2-2-1-----------------|
A|-------------------------------------------------2-2-2-2---------|
E|---------------------------------------------------------3-3-3-3-|

G|-----------------------------------------------------------------|
D|-0-0-0-1-2-2-2-1-0-0-0-1-2-2-2-1-0-0-0-1-2-2-2-1-----------------|
A|-------------------------------------------------2-2-2-2---------|
E|---------------------------------------------------------2-2-2-2-|

Chorus
G|-----------------------------------------------------------------|
D|-2-2-2-0-2-2-2-0-------------------------------------------------|
A|-----------------2-2-2-0-2-2-2-0-4-4-4-0-4-4-4-0-----------------|
E|-------------------------------------------------3-3-3-0-3-3-3-0-|

Verse 3
G|-0-0-0-2-3-3-3-2-0-0-0-2-3-3-3-2---------------------------------------|
D|---------------------------------0-0-0-2-3-3-3-2-0-0-0-2-3-3-3-2-------|
A|-----------------------------------------------------------------------|
E|-----------------------------------------------------------------------|

G|-----------------------------------------------------------------------|
D|-7-7-7-9-10-10-10-9-7-7-7-9-10-10-10-9---------------------------------|
A|---------------------------------------5-5-5-7-8-8-8-7-5-5-5-7-8-8-8-7-|
E|-----------------------------------------------------------------------|

Bridge
G|-0-0-0-0-0-0-3-2-0-0---------------------------------------------------|
D|---------------------3-2-0-0-----------------0-0-----------------------|
A|-----------------------------1-0---------------------------------------|
E|---------------------------------3-3-3-3-3-3---------------------------|
            
Submit corrections

comments powered by Disqus
↑ Back to top | Garage Boy Mafia Bass for Punk Rawk Anthem. Lyrics for acoustic guitar and electric guitar. Tablatures and chords are parodies/interpretations of the original songs. You may use it for private study, scholarship, research or language learning purposes only