» » »

Garage Boy Mafia, Poser Bass tabs (ver.1)

Artists:  A B C D E F G H I J K L M N O P Q R S T U V W X Y Z # 

Poser Bass tabs (ver.1)

Garage Boy Mafia Tabs
 Rating:
4/5 (4 votes)
Poser lessons Tabs too difficult? Try these video lessons and learn fast
                Garage Boy Mafia
"P.O.S.E.R."


Verse
G|-------------------------------------|
D|-----4-7-----4-7-----4-7-8-8-7-5-----|
A|-5-5---------------------------------|
E|---------5-5-----7-7-----------------|


Chorus
G|------------------------------------------|
D|-----4-5-4-----4-5-4-----4-5-4------------|
A|-5-5-------------------------------3------|
E|-----------5-5-------7-7-------3-3---3-5--|

G|------------------------------------------|
D|-----4-5-4-----4-5-4-----4-5-4--7-7-5-4-5-|
A|-5-5--------------------------------------|
E|-----------5-5-------7-7------------------|


Bridge
G|-------------------------------------|
D|-12----12-----12--14----14----14-----|
A|-12-12-----12--------12----12--------|x2
E|-------------------------------------|

G|-------------------------------------|
D|-14----14-----14--16----16----14-----|
A|-14-14-----14--------14----14--------|x2
E|-------------------------------------|
            
Submit corrections

comments powered by Disqus
↑ Back to top | Garage Boy Mafia Bass for Poser. Lyrics for acoustic guitar and electric guitar. Tablatures and chords are parodies/interpretations of the original songs. You may use it for private study, scholarship, research or language learning purposes only