» » »

Garage Boy Mafia, Of No Value Bass tabs (ver.1)

Artists:  A B C D E F G H I J K L M N O P Q R S T U V W X Y Z # 

Of No Value Bass tabs (ver.1)

Garage Boy Mafia Tabs
Rating:
0/5 (0 votes)
Hard to play? Try these video lessons and learn fast.
                Garage Boy Mafia
"Of No Value"
*= Let Ring

Verse
G|---------------------------------|
D|---------------------------------|
A|-------------------------3-3-3-3-|
E|-3-3-3-3-2-2-2-2-0-0-0-0---------|

G|---------------------------------|
D|---------------------------------|
A|-----------------5-5-5-5-3-3-3-3-|
E|-3-3-3-3-2-2-2-2-----------------|

G|---------------------------------|
D|---------------------------------|
A|---------5-5-5-5-3-3-3-3-2-2-2-2-|
E|-3-3-3-3-------------------------|

G|---------------------------------|
D|---------------------------------|
A|---------------------------------|
E|-3-3-3-3-2-2-2-2-0-0-0-0-2-2-2-2-|

G|---------------------------------|
D|---------------------------------|
A|---------------------------------|
E|-5-5-5-5-3-3-3-3-2-2-2-2-3-3-3-3-|

G|---------------------------------|
D|---------------------------------|
A|-5-5-5-5-------------------------|
E|---------5-5-5-5-3-3-3-3-2-2-2-2-|

G|---------------------------------------|
D|---------------------------------------|
A|-3-3-3-3-2-2-2-2-0*-3-3-3-3-2-2-2-2-0*-|
E|---------------------------------------|


Chorus
G|---------------------------------|
D|---------------------------------|
A|-----5-----5---------------------|
E|-3-3---3-3---3-3-5-3-3-5---------|

G|---------------------------------|
D|---------------------------------|
A|-----3-----3-----2-----2---------|
E|-3-3---3-3---3-3---3-3-----------|

G|---------------------------------|
D|---------------------------------|
A|-----5-5-5-5-5-5-----------------|
E|-3-3-------------3-3-5-5-5-5-5-5-|

G|---------------------------------|
D|---------------------------------|
A|-----3-3-3-3-2-2-2-2-0-0-0-0-0-0-|
E|-3-3-----------------------------|


Bridge
G|-------------------------------------|
D|-------------------------------------|
A|-------5*-0*-------5*-0*-------5*-0*-|
E|-3*-2*-------3*-2*-------3*-2*-------|

G|---------------------------------|
D|---------------------------------|
A|-3-3-3-3-3-3-3-3-2-2-2-2-2-2-2-2-|
E|---------------------------------|

G|-----------------------------------|
D|-----------------------------------|
A|-3-3-3-3-3-3-3-3-------------------|
E|-----------------3-3-3-3-3-3-3-3-3-|

Outro
G|----------------------------------------------|
D|----------------------------------------------|
A|--------------5-5-5-5-3-3-2-2-0-0-0-0-0-0-0-0-|
E|-3-3-3-3-3--3---------------------------------|
            

comments powered by Disqus
↑ Back to top | Garage Boy Mafia Bass for Of No Value. Lyrics for acoustic guitar and electric guitar. Tablatures and chords are parodies/interpretations of the original songs. You may use it for private study, scholarship, research or language learning purposes only