» » »

I Can't See You Anymore Bass tabs (ver.1)

Artists:  A B C D E F G H I J K L M N O P Q R S T U V W X Y Z # 

I Can't See You Anymore Bass tabs (ver.1)

Garage Boy Mafia
Rating:
0/5 (0 votes)

Hard to play? Try these video lessons and learn fast.
                Garage Boy Mafia
"I Can't See You Anymore..."
WorldwidePUNK182

(Play SLowly)
Intro
G|-------------------------------------------------|
D|-------------------------------------------------|
A|-4--------------7--------------5-------------4-0-|
E|-------------------------------------------------|

G|-------------------------------------------------|
D|-------------------------------------------------|
A|-4--------------7--------------5-------------9-7-|
E|-------------------------------------------------|

Verse
G|-------------------------------------------------|
D|-------------------------------------------------|
A|-44444444-77777777-55555555/-9999-7777-----------|
E|-------------------------------------------------|

Chorus
G|-------------------------------------------------|
D|-------------------------------------------------|
A|-0-0-4-0-0-4-0-0-7-0-0-7-0-0-5-0-0-5-5-6-7-0-0-7-|
E|-------------------------------------------------|

Bridge
G|-------------------------------------------------|
D|-------------------------------------------------|
A|-00444444---0077777777-10-9-9-----10-9-9---------|
E|------------------------------000----------------|
            
Hard to play? Try these video lessons and learn fast. | Correct




comments powered by Disqus
↑ Back to top | Tablatures and chords are parodies/interpretations of the original songs. You may use it for private study, scholarship, research or language learning purposes only