» » »

Going Under Bass tabs (ver.1)

Artists:  A B C D E F G H I J K L M N O P Q R S T U V W X Y Z # 

Going Under Bass tabs (ver.1)

Garage Boy Mafia
Rating:
0/5 (0 votes)

Hard to play? Try these video lessons and learn fast.
                Garage Boy Mafia
"Going Under"
WorldwidePUNK182

Verse
G|-----------------------------------------------------|
D|-----------------------------------------------------|
A|-7-7-7-7-7-7-7-7-------------------------------------|
E|-----------------7-7-7-7-7-7-7-7--5--5-555--5--5-555-|

G|-----------------------------------------------------|
D|-----------------------------------------------------|
A|-7-7-7-7-7-7-7-7-------------------------------------|
E|-----------------5-5-5-5-5-5-5-5--7--7-777--7--7-777-|

G|-----------------------------------------------------|
D|-----------------------------------------------------|
A|-7-7-7-7-7-7-7-7-------------------------------------|
E|-----------------5-5-5-5-5-5-5-5--7--5-555--7--5-555-|

G|-----------------------------------------------------|
D|-----------------------------------------------------|
A|-----------------------------------------------------|
E|-7-7-7-7-7-7-7-7-7-7-7-7-7-7-7-7---------------------|

Chorus
G|-------------------------------------------------------------------|
D|-----------------7-7-7-7-7-7-7-7-9-9-9-9-9-9-9-9-5-5-5-5-0-0-0-0---|
A|-7-7-7-7-7-7-7-7---------------------------------------------------|
E|-------------------------------------------------------------------|

Bridge 
G|-------------------------------------------------------------------|
D|---------------------------------7-7-7-7-7-7-7---7-7-7-7-7-7-7-----|
A|-7-7-7-7-7-7-7---7-7-7-7-7-7-7-----------------7---------------7---|
E|---------------7---------------7-----------------------------------|

G|-------------------------------------------------------------------|
D|-9-9-9-9-9-9-9---9-9-9-9-9-9-9---5-5-5-5-5-5-5---7-7-7-7---5---5---|
A|---------------9---------------9---------------5---------7---5-----|
E|-------------------------------------------------------------------|
            
Hard to play? Try these video lessons and learn fast. | Correct




comments powered by Disqus
↑ Back to top | Tablatures and chords are parodies/interpretations of the original songs. You may use it for private study, scholarship, research or language learning purposes only