» » »

Garage Boy Mafia, Forget It Bass tabs (ver.1)

Artists:  A B C D E F G H I J K L M N O P Q R S T U V W X Y Z # 

Forget It Bass tabs (ver.1)

Garage Boy Mafia Tabs
 Rating:
4/5 (4 votes)
Forget It lessons Tabs too difficult? Try these video lessons and learn fast
                Garage Boy Mafia
"Forget it!"
WorldwidePUNK182

Verse
G|-------------------------------------|
D|-------------------7-77-777----------|
A|----------5-55-555----------8-88-888-|
E|-7-77-777----------------------------|

Chorus
G|-------------------------------------|
D|-------------------------------------|
A|----------55555555-33333333-77777777-|
E|-77777777----------------------------|

Bridge
G|-----9----9----------11-----11-------|
D|-7-7---7-7--7-7--9-9----9-9----9-9---|
A|-------------------------------------|
E|-------------------------------------|

G|-----7-----7----------9-----9--------|
D|-5-5---5-5---5-5--7-7---7-7---7-7----|
A|-------------------------------------|
E|-------------------------------------|

G|-----5-----5----------7-----7--------|
D|-3-3---3-3---3-3--5-5---5-5---5-5----|
A|-------------------------------------|
E|-------------------------------------|

G|-----4-----4----------5-----5--------|
D|-2-2---2-2---2-2--3-3---3-3---3-3----|
A|-------------------------------------|
E|-------------------------------------|
            
Submit corrections

comments powered by Disqus
↑ Back to top | Garage Boy Mafia Bass for Forget It. Lyrics for acoustic guitar and electric guitar. Tablatures and chords are parodies/interpretations of the original songs. You may use it for private study, scholarship, research or language learning purposes only